Slayer - Bitter Peace Chords & Tabs

 

Bitter Peace Chords & Tabs

Slayer Chords & Tabs

Version: 1 Type: Bass Tab 0 ratings
1 star 2 stars 3 stars 4 stars 5 stars
comments

Bitter Peace Bass Tab

   
Slayer - Bitter Peace
Submitted By: Sqweeky
EMail: Blindside831@aol.com
Album: Diabolus in Musica
Year: 1998
Tabbed By David Siddons (farmer_siddons@hotmail.com)

Riff 1:
Gb|------------------|
Db|------------------|
Ab|------------------|
Eb|-0-2-1-0-2-1-0-5-4|

Riff 2: 
Gb|-----------------|
Db|-----------------|
Ab|-----------------|
Eb|-3-6-5-3-6-5-3-2-|

Riff 3:
Gb|---|
Db|---|
Ab|---|
Eb|-0-|

Riff 4:
Gb|-------------------------------------------------------|
Db|-------------------------------------------------------|
Ab|-----------7-5-8-8-----------7-5-8-8-----------7-5-8-8-|
Eb|-0-0-0-0-0---------0-0-0-0-0---------0-0-0-0-0---------|

Riff 5:
Gb|--------------------------------------------------|
Db|--------------------------------------------------|
Ab|-----------8-7-----------10-8---------8-7-5-7-5-8-|
Eb|-0-0-0-0-0-----0-0-0-0-0------0-0-0-0-------------|

Riff 6:
Gb|---------------------------------|
Db|---------------------------------|
Ab|-------------8-7-------------7-8-|
Eb|-0-0-0-0-0-0-----0-0-0-0-0-0-----|

Riff 7:
Gb|----------------------------|-------------------------------|------------------|
Db|----------------------------|-------------------------------|------------------|
Ab|----------------------------|-------------------------------|------------------|
Eb|-3/222222-3/222222-3/222222-|-000010001-000010001-000010001-|-5333533332223222-|

Riff 8:
Gb|--------------------------------------------------------|
Db|--------------------------------------------------------|
Ab|--------------------------------------------------------|
Eb|-00000000000011-0000000000011-000000000011-000000000011-|
[ Tab from: http://www.guitartabs.cc/tabs/s/slayer/bitter_peace_btab.html ]
Riff 9:[Only Once]                            [Play 4 Times]
Gb|-------------------------------------------|--------------------------------|
Db|-------------------------------------------|--------------------------------|
Ab|--------8-7--------10-8--------8-7-7-5-5-8-|--------------------------------|
Eb|-000000-----000000------000000-------------|-000000001111111222222233333333-|

Riff 10:
Gb|------------------------|------------------------------------|
Db|--------6---------------|------------------------------------|
Ab|------------------------|--------8-7--------10-8--------8-5b-|
Eb|-333333---3333333333334-|-000000-----000000------000000------|

Riff 11: [3 Times]                           [Only Once]
Gb|-----------------------------------------|-----------------------|
Db|-----------------------------------------|-----------------------|
Ab|-----------------10-9-7------------------|-------------------2-1-|
Eb|-1--000000000000--------10-0000000000004-|-3-2-0-2-3-2-0-2-3-----|

Riff 12:
Gb|---------------------------------------------------------|
Db|---------------------------------------------------------|
Ab|---------------------------------------------------------|
Eb|-3-2-0-2-3-2-0-2-3-2-0-2-3-3-3-2-0-2-3-2-0-2-3-2-0-2-3-3-|

Riff 13:
Gb|------------------------------------|
Db|------------------------------------|
Ab|----------------------22221111------|
Eb|-22223333000022223333----------2222-|

Riff 14:
Gb|---------------------------------------------------------|
Db|---------------------------------------------------------|
Ab|---------------------------------------------------------|
Eb|-00001011-000000001011-000000001011-0-10----31----10--31-|

Playlist:
Riff 1  x9
Riff 2  x4
Riff 1  x3
Riff 2  x2
Riff 1  x4
Riff 3  x1
[Pause]
Riff 4  x1
Riff 5  x2
Riff 6  x12
Riff 7  x1
Riff 6  x4
Riff 8  x1
Riff 7  x1
Riff 9  x1
Riff 10 x4
Riff 11 x1 + 1 Bar
Riff 12 x1
Riff 13 x1
Riff 14 x1
Comments