Slayer - Abolish Government Chords & Tabs

 

Abolish Government Chords & Tabs

Slayer Chords & Tabs

Version: 1 Type: Bass Tab 0 ratings
1 star 2 stars 3 stars 4 stars 5 stars
comments

Abolish Government Bass Tab

Abolish Government/Superficial Love 
tabbed by: ryan b

Riff A: (3 times)                                                                                             X3 
Gb---------------------------
Db---------------7777h8-8----
Ab-----77777777-----------8--
Eb---------------------------
  
Riff B: (once) 
Ab---77777777--9-9-8-888--
Eb------------------------
[ Tab from: http://www.guitartabs.cc/tabs/s/slayer/abolish_government_btab.html ]
Riff A: (3 times)
Riff B: (once)
Riff A: (3 times)
Riff B: (once)
***rest for guitar***

Riff C: (7 times) 
Ab---------8-8--7-777--5-----
Eb--7--7------------------5--

Riff D: (4 times)
Ab--7-7-8-8---------------- 
Eb-------------8-8h9-999-- 

Riff C: (4 times)

Riff E: (4 times)
Ab-----8------------ 
Eb--7-----55555555--

Riff C: (6 times)
Riff D: (4 times)
Riff C: (4 times)


Riff F: (once)
Ab-----8--
Eb--7-----

Comments