Slaves On Dope - Leader Of The Losers Chords & Tabs

 

Leader Of The Losers Chords & Tabs

Slaves On Dope Chords & Tabs

Version: 2 Type: Tab 0 ratings
1 star 2 stars 3 stars 4 stars 5 stars
comments

Leader Of The Losers Tab

   
Artist:		Slaves On Dope
Song:		Leader Of The Losers
Album:		Inches From the Mainline
Author:		hardrockuniverse@kornfreak.com


Tuning: C#, G#, C#, F#, A#, D#

pm= Palm-Mute
w = Whammy Pedal
b = bend
r = release bend
~ = vibrato
h = hammer on


Intro (Set EQ to low bass and treble, high mids)
D#|--------------------------------------|
A#|--------------------------------------|
F#|--------------------------------------|
C#|--------------------------------------|
G#|--------------------------------------|
C#|-13-13-13-16-0------13-13-13-16-0--0--|

				      First Time
D#|-----------------------------------|------|
A#|-----------------------------------|------|
F#|-----------------------------------|------|
C#|-----------------------------------|------|
G#|-----------------------------------|-(16)-|
C#|-13-13-13-16-0------13-13-13-16-0--|-(16)-|
				          NH

Chorus

D#|------------------------------------|
A#|------------------------------------|
F#|------------------------------------|
C#|-1-1-1-4-0-----1-1-1-4-0---(4)-(5)--|
G#|-1-1-1-4-0-----1-1-1-4-0---(4)-(5)--|
C#|-1-1-1-4-0-----1-1-1-4-0---(4)-(5)--|
			       NH--|
[ Tab from: http://www.guitartabs.cc/tabs/s/slaves_on_dope/leader_of_the_losers_tab_ver_2.html ]
D#|---------------------------------|
A#|---------------------------------|
F#|---------------------------------|
C#|-1-1-1-4-0-----1-1-1-4-0---(4)---|
G#|-1-1-1-4-0-----1-1-1-4-0---(4)---|
C#|-1-1-1-4-0-----1-1-1-4-0---(4)---|
			       NH

Verse
D#|---------------------------|
A#|---------------------------|
F#|---------------------------|
C#|-1-1-1-4-------1-1-1-0-----|
G#|-1-1-1-4-------1-1-1-0-----|
C#|-1-1-1-4-------1-1-1-0-----|
    PM--|	  PM--|


Fill 1
D#|-------------|
A#|-------------|
F#|-------------|
C#|-1-1-4-1-1-4-|
G#|-1-1-4-1-1-4-|
C#|-1-1-4-1-1-4-|
    PM-	  PM-

Fill 2
D#|--------------------|
A#|--------------------|
F#|--------------------|
C#|-1-1-1-1-1-1--(4)---|
G#|-1-1-1-1-1-1--(4)---|
C#|-1-1-1-1-1-1--(4)---|
    PM-----------------|   NH


Interlude
D#|----------------------------|
A#|----------------------------|
F#|----------------------------|
C#|-6-6-6--(4)--6-6-6--(4)-0-6-|
G#|-6-6-6--(4)--6-6-6--(4)-0-6-|
C#|-6-6-6--(4)--6-6-6--(4)-0-6-|
	    NH		NH

D#|----------------------------|
A#|----------------------------|
F#|----------------------------|
C#|-6-6-6--(4)--6-6-6--(4)-0-0-|
G#|-6-6-6--(4)--6-6-6--(4)-0-0-|
C#|-6-6-6--(4)--6-6-6--(4)-0-0-|
	    NH	 	NH PM-


D#|----------------------------|
A#|----------------------------|
F#|----------------------------|
C#|-6-6-6--------6-6-6---------|
G#|-6-6-6--------6-6-6---------|
C#|-6-6-6--(4)b--6-6-6--(4)b---|x2
	    NH	 	NH

Intro 		x2
Chorus 		x6
Verse 		x4
Fill 1 		x1
Intro		x1
Verse		x4
Fill 2		x1
Chorus		x4
Verse		x4
Fill 2		x1
Chorus		x4
Interlude	x1
Chorus		xfade out
Comments