Slaves On Dope - Inches From The Mainline Chords & Tabs

 

Inches From The Mainline Chords & Tabs

Slaves On Dope Chords & Tabs

Version: 3 Type: Tab 0 ratings
1 star 2 stars 3 stars 4 stars 5 stars
comments

Inches From The Mainline Tab

   
 "inches from the mainline"      Tuning:D|-
  Slaves on Dope                        A|-
                                        F|-
                                        C|-
                                        G|-
                                        C|-

   [intro]Clean
 D|------------------------------------------------------------------|
 A|------------------------------------------------------------------|
 F|------------------------------------------------------------------|
 C|-8----9----8------------------------------------------------------|
 G|-6----6----6------------------------------------------------------|
 C|------------------------------------------------------------------|

   [chorus]Distorted
 D|------------------------------------------------------------------|
 A|------------------------------------------------------------------|
 F|-------3-3-3-2---6-6-6-------6/-8-------3-3-3-2-------------------|
 C|-1-1-1-3-3-3-2-1-6-6-6-6-6-6-x/-x-1-1-1-3-3-3-2-1-4-4-4-6--6-7----|
 G|-1-1-1-1-1-1-0-1-4-4-4-6-6-6-4/-6-1-1-1-1-1-1-0-1-4-4-4-6--6-7----|
 C|-1-1-1---------1-------6-6-6------1-1-1---------1-4-4-4-6--6-7----|
                                                              p.m.
[ Tab from: http://www.guitartabs.cc/tabs/s/slaves_on_dope/inches_from_the_mainline_tab_ver_3.html ]
   [verse]
 D|------------------------------------------------------------------|
 A|------------------------------------------------------------------|
 F|------------------------------------------------------------------|
 C|-8----9--8----6----8----9-8--6--9-8--6----------------------------|
 G|-6----6--6----6----6----6-6--6------------------------------------|
 C|------------------------------------------------------------------|

   [lyrics]

  INCHES FROM THE MAINLINE

I REMEMBER ALL THE

TIMES YOU STARED AT ME

AND YOU TOLD ME I WAS

SOMETHING TO BE PROUD OF

TOOK A WALK TO THE

CORNER STORE IN 85

AND AGAIN IN 86

87 I GOT HIGH FOR THE FIRST TIME

88 IT WAS MY FAVORITE PASTIME

89 I WAS INCHES FROM THE

MAINLINE

ON DIVINE I?M DOING FINE

THIS BEAST DOESN?T LET ME GO

IT?S MAKING ME FEEL

SO STRONG

I?M TRYING TO RE-CREATE INSANITY

FEEL SO STRONG

PUT MYSELF IN A PROGRAM

OF RECOVERY

SAW ANOTHER SIDE OF

LIFE THAT WAS BEAUTIFUL

IT ALLOWED ME TO INCORPORATE A WAY OF LIFE

THAT WAS MEANINGFUL TO YOU

BUT YOU CAN NEVER

LET GO OF THE PAST

SOMETIMES THE WINNER

IS REALLY DEAD LAST

I KNOW I?M CLEAN

BUT MY MIND IS SO

FILTHY, SO BEAUTIFUL

DON?T RUSH ME

I?M FRAGILE

I WON?T BARK

BUT I?LL BIT BACK

AND I?LL ATTACK

DO YOU BELONG?

I?VE BEEN TRYING

TO GET OVER

BEING GOD BUT IT?S

JUST TOO MUCH FUN

TO CONTROL
Comments