Slaves On Dope - Inches From The Mainline Chords & Tabs

 

Inches From The Mainline Chords & Tabs

Slaves On Dope Chords & Tabs

Version: 2 Type: Tab 0 ratings
1 star 2 stars 3 stars 4 stars 5 stars
comments

Inches From The Mainline Tab

   
Tabbed by - josh slee
Tuning - Drop D. D,a,D,g,b,e
Band - Slaves on dope
Song - inches from the mainline

i think this song sonds right, and i know that its not in a Drop D tuning but this way is so much easyer. Plus, i dont know if this is the whole song
[ Tab from: http://www.guitartabs.cc/tabs/s/slaves_on_dope/inches_from_the_mainline_tab_ver_2.html ]
                              Main riff
e-----------------------------------------------------------
b-----------------------------------------------------------
g----------------------------5---------5-----7--------------
d---0--0--0---7--7---6---0---5---5--5--5-----7--------------
a---0--0--0---7--7---6---0---3---5--5--3-----5--------------
D---0--0--0---7--7---6---0-------5--5-----------------------

e---------------------------------------------------------------------
b---------------------------------------------------------------------
g---------------------------------------------------------------------
d---0--0--0----7--7--7--6--0----3--3--3--3---5--5--5--5---6--6---0----
a---0--0--0----7--7--7--6--0----3--3--3--3---5--5--5--5---6--6---0----
D---0--0--0----7--7--7--6--0----3--3--3--3---5--5--5--5---6--6---0----

And thats it. [i think it is]
If this really sucks or you have any comments feel free to put them on here or email me at johfairview@hotmail.com
Comments