Slaves On Dope - I Cant Die Chords & Tabs

 

I Cant Die Chords & Tabs

Slaves On Dope Chords & Tabs

Version: 1 Type: Tab 0 ratings
1 star 2 stars 3 stars 4 stars 5 stars
comments

I Cant Die Tab

   
name=Billy Donovan
band=Slaves On Dope
song=I Can't Die
inst_type=Guitar
body=This tuning is Db Ab Db Gb Bb Eb
Just tune your strings down a half-step down from Drop D Tuning

x Palm Mute
^ Harmonic

-------------------------------------------------------------------------
-------------------------------------------------------------------------
-------------------------------------------------------------------------
-------------------------------------------------------------------------
-------------------------------------------------------------------------
-x1-x0-x1-x0-x1-x0-x1-x0-x1-x0-------------------------------------------
Intro
[ Tab from: http://www.guitartabs.cc/tabs/s/slaves_on_dope/i_cant_die_tab.html ]
-------------------------------------------------------------------------
-------------------------------------------------------------------------
-------------------------------------------------------------------------
-0-4-4-4-5-2-0--------0-4-4-4-5-2-4-8------------------------------------
-0-4-4-4-5-2-0--5^----0-4-4-4-5-2-4-8------------------------------------
-0-4-4-4-5-2-0--------0-4-4-4-5-2-4-8------------------------------------
Intro#2 and Chorus

-------------------------------------------------------------------------
-------------------------------------------------------------------------
-------------------------------------------------------------------------
-7-----------------------------------------------------------------------
-5-----------------------------------------------------------------------
-------------------------------------------------------------------------
2nd Verse (Wah)

-------------------------------------------------------------------------
-------------------------------------------------------------------------
-------------------------------------------------------------------------
-x0-x0------x0-x0------x0-x0------x0-x0----------------------------------
-x0-x0-6-6--x0-x0-6-6--x0-x0-6-6--x0-x0-6-6-6-6--------------------------
-x0-x0------x0-x0------x0-x0------x0-x0----------------------------------
Bridge

End with Chorus then do the Bridge riff once more


Comments