Slaves On Dope - Fallout Chords & Tabs

 

Fallout Chords & Tabs

Slaves On Dope Chords & Tabs

Version: 2 Type: Tab 0 ratings
1 star 2 stars 3 stars 4 stars 5 stars
comments

Fallout Tab

   
Author/Artist: Slaves On Dope
Title: Fallout
Album: Inches From The Mainline
Transcribed by: Billy Donovan
Email: master_billy16@hotmail.com

This tuning is Db Ab Db Gb Bb Eb
Just tune your strings down a half-step down from Drop D Tuning

------------------------------------------------------------------------------
------------------------------------------------------------------------------
------------------------------------------------------------------------------
------------------------------------------------------------------------------
-0-9-9-0-9-9-0-9-9-0-9-9-10---------------------------------------------------
------------------------------------------------------------------------------
 Riff A (Tremolo)                                                             

-------------------------------------------|----------------------------------
-------------------------------------------|----------------------------------
-------------------------------------------|----------------------------------
-0-4-0-4-0-4-0-4-0-7---0-4-0-4-0-4-0-4-0-5-|--2-------------------------------
-0-4-0-4-0-4-0-4-0-7---0-4-0-4-0-4-0-4-0-5-|--2-------------------------------
-0-4-0-4-0-4-0-4-0-7---0-4-0-4-0-4-0-4-0-5-|--2-------------------------------
 Riff B                                      End On                           

-4--7--2--0-------------------------------------------------------------------
-7--10-5--3-------------------------------------------------------------------
-6--9--4--2-------------------------------------------------------------------
-4--7--2--0-------------------------------------------------------------------
-4--7--2--0-------------------------------------------------------------------
-4--7--2--0-------------------------------------------------------------------
 Riff C-Just play with these chords                                           

------------------------------------------------------------------------------
------------------------------------------------------------------------------
------------------------------------------------------------------------------
------------------------------------------------------------------------------
------------------------------------------------------------------------------
-4-4-4-2-5--------------------------------------------------------------------
 Riff D (Slow ringing)                                                        
[ Tab from: http://www.guitartabs.cc/tabs/s/slaves_on_dope/fallout_tab_ver_2.html ]
------------------------------------------------------------------------------
------------------------------------------------------------------------------
------------------------------------------------------------------------------
-0-4-0-4-0-4-0-4----------0-4-0-4-0-4-0-4-2-2---------------------------------
-0-4-0-4-0-4-0-4----------0-4-0-4-0-4-0-4-2-2---------------------------------
-0-4-0-4-0-4-0-4--4^-4^---0-4-0-4-0-4-0-4-2-2---------------------------------
 Riff E                                                                       

----------------|-------------------------------------------------------------
----------------|-------------------------------------------------------------
----------------|--4^---------------------------------------------------------
-x4-x4-x4-----4-|--4^---------------------------------------------------------
-x4-x4-x4-5-7---|-------------------------------------------------------------
-x4-x4-x4-------|-------------------------------------------------------------
 Riff F           End On 

For the last riff in the song just play Riff E but end on...

------------------------------------------------------
------------------------------------------------------
------------------------------------------------------
-0----------------------------------------------------
-0----------------------------------------------------
-0----------------------------------------------------

===========

Slaves on Dope - Fallout

    |----------------------------|
    |----------------------------|
    |----------------------------|
    |----------------------------|
    |-0-9-9-0-9-9-0-9-9-0-9-9-10-|
    |----------------------------|

     RIFF B:
                                                  end on
    |-------------------------------------------|-----|
    |-------------------------------------------|-----|
    |-------------------------------------------|-----|
    |-0-4-0-4-0-4-0-4-0-7---0-4-0-4-0-4-0-4-0-5-|--2--|
    |-0-4-0-4-0-4-0-4-0-7---0-4-0-4-0-4-0-4-0-5-|--2--|
    |-0-4-0-4-0-4-0-4-0-7---0-4-0-4-0-4-0-4-0-5-|--2--|

     RIFF C:  

     just play with these chords

    |-4--7--2--0-|
    |-7--10-5--3-|
    |-6--9--4--2-|
    |-4--7--2--0-|
    |-4--7--2--0-|
    |-4--7--2--0-|

     RIFF D: (Slow ringing)

    |-----------|
    |-----------|
    |-----------|
    |-----------|
    |-----------|
    |-4-4-4-2-5-|

     RIFF E:

    |----------------------------------------------|
    |----------------------------------------------|
    |----------------------------------------------|
    |-0-4-0-4-0-4-0-4----------0-4-0-4-0-4-0-4-2-2-|
    |-0-4-0-4-0-4-0-4----------0-4-0-4-0-4-0-4-2-2-|
    |-0-4-0-4-0-4-0-4--4^-4^---0-4-0-4-0-4-0-4-2-2-|

     RIFF F:        

                     end on
    |-------------|------|
    |-------------|------|
    |-------------|--4^--|
    |-4-4-4-----4-|--4^--|
    |-4-4-4-5-7---|------|
    |-4-4-4-------|------|

     for the last riff in the song just play Riff E but end on...

    |---|
    |---|
    |---|
    |-0-|
    |-0-|
    |-0-|
Comments