Slaughter - Fly To The Angels Chords & Tabs

 

Fly To The Angels Chords & Tabs

Slaughter Chords & Tabs

Version: 3 Type: Tab 0 ratings
1 star 2 stars 3 stars 4 stars 5 stars
comments

Fly To The Angels Tab

   
#----------------------------------PLEASE NOTE----------------------------------#
# This file is the author's own work and represents their interpretation of the #
# song. You may only use this file for private study, scholarship, or research. #
#-------------------------------------------------------------------------------#

http://www.artistdirect.com/music/artist/webs/0,,494120,00.html?artist=Slaughter

Fly To The Angels
By: Slaughter
Not for the faint at heart.
Transcribed by Geoff Oetting


Tune down 1 whole step...
d g c f a d


 Intro
   Gtr I
   
|------------------|-----------------|
|------------------|-----------------|
|-/6-----7-----9---|-9-----7-----6---|
|----7-----7-------|---5-----5-------|
|------0-----0---0-|-----0-----0---0-|
|------------------|-----------------|

|----------------------|-0----0-(0)-0---0-|-(0)---------------------|
|----------------------|-0--0-0-(0)-0---0-|-(0)-------------5-------|
|-6s7-----6-(6)s2-2s4--|-2--2---------2-2-|-(2)-----2-4-4s6---4p2---|
|-----4------4---------|-2----------------|-----2h4---------------4-|
|-------0--------------|-0----------------|-------------------------|
|----------------------|------------------|-------------------------|


   1st,2nd verses
|--------0-(0)-------|-------0-(0)-------|-------0-(0)------|
|o-------------3-----|-------------3-----|-------------0--2-|
|----4-----------4---|---0-----------0---|-----2------------|
|--5---5-----------5-|-4---4-----------4-|---2--------------|
|o-------------------|-------------------|-0----------------|
|--------------------|-------------------|------------------|

|---------0-(0)-------|-------0-(0)-------|
|-(2)-----------0-----|-------------3-----|
|-----2-----------2---|---4-----------4---|
|-------2-----------2-|-5---5-----------5-|
|---------------------|-------------------|
|---------------------|-------------------|

|-------0-(0)-------|-------0-(0)-------|
|-------------3-----|-------------0--2--|
|---0-----------0---|-----2-------------|
|-4---4-----------4-|---2---------------|
|-------------------|-0-----------------|
|-------------------|-------------------|

|---------0-(0)-------|-------0-(0)-------|
|-(2)-----------0-----|-------------3-----|
|-----2-----------2---|---4-----------4---|
|-------2-----------2-|-5---5-----------5-|
|---------------------|-------------------|
|---------------------|-------------------|

|-------0-(0)-------|-------0-(0)-------|
|-------------3-----|-------------0--2--|
|---0-----------0---|-----2-------------|
|-4---4-----------4-|---2---------------|
|-------------------|-0-----------------|
|-------------------|-------------------|

|--------------------|---------3-(3)--------|
|-(2)----3-(3)-2-0h2-|-------3-3-(3)-3------|
|-----0--------------|-----0-0-------0--0-0-|
|--------------------|--0--0--------------0-|
|--------------------|--2-------------------|
|--------------------|--3-------------------|

 Gtr III

|--------------------|----------------------|
|----------------7s==|=12-------------------|
|----------------7s==|=12--------------12s==|
|----------------7s==|=12-------------------|
|--------------------|----------------------|
|--------------------|----------------------|

|---------0-(0)-------|--------3-(3)--------|
|-------3-------3-----|----6-----------6----|
|--2--2-2----------2--|--5---5-------5---5--|
|--0--0---------------|---------------------|
|--0------------------|---------------------|
|---------------------|---------------------|

|---------------------|---------------------|
|-----------------10s=|=13------------------|
|-11------------------|---------------------|
|---------------------|---------------------|
|---------------------|---------------------|
|---------------------|---------------------|

|---0-----1-------|--------0-(0)---8p7-|----3----------3-------------|
|-1---1-----1-----|------3---------8---|----3--3----------3----------|
|-2-----2-----2---|----4---------0-----|-0---------0----------4------|
|---------------3-|-/5-----------------|--------------------------5--|
|-----------------|--------------------|-----------------------------|
|-----------------|--------------------|-----------------------------|

|-----------------|--------------------|-----------------------------|
|-----------------|--------------------|---15s14------15s14------15s=|
|-----------------|--------------------|---------(14)-------(14)-----|
|-----------------|--------------------|-----------------------------|
|-----------------|--------------------|-----------------------------|
|-----------------|--------------------|-----------------------------|


                                     Chorus
 Gtrs I, II
|-!0---------------|-(0)-----------|----------|-----------------|
|-!0---------------|-(0)-----------|-3--------|-3---------------|
|-!2---------------|-(2)-----------|-0--------|-2---------------|
|-!2---------------|-(2)-----------|-0--------|-0---------------|
|-!0---------------|-(0)-----------|----------|-0----0-5-4-5-4--|
|------------------|--------15\----|-3--------|-----------------|


|------------------|---------------|----------|-----------------|
|-14---------------|---------------|----------|-----------------|
|-----14--(14)\----|---------------|----------|-----------------|
|----------14\-----|---------------|----------|-----------------|
|------------------|---------------|----------|-----------------|
|------------------|---------------|----------|-----------------|

|--------0------|---------------------|--------------|
|--------0------|---------------------|-3----3-3--3--|
|--------2------|---------------------|-0----0-0--0--|
|--------2------|---------------------|-0----0-0--0--|
|-5-4-0--0------|-----0-0-0-3b4-0-0-0-|--------------|
|-------------0-|-3b5-----------------|-3------3--3--|

|----------------|-------0------|---------------------|
|-3--------------|-------0------|---------------------|
|-2--------------|----2--2------|---------------------|
|-0--------------|----2--2------|---------------------|
|-0----0-5-4-5-4-|-0--0--0--0-0-|-3b4-0-0-------0-0-0-|
|----------------|--------------|---------0-3b5-------|


                         To Coda
                                &
  Gtr II
|--------------|----------------|--------0----|
|-3----3-3--3--|-3--------------|--------0----|
|-0----0-0--0--|-2--------------|--------2----|
|-0----0-0--0--|-0--------------|--------2----|
|--------------|-0----0-5-4-5-4-|-5-4-0--0----|
|-3------3--3--|----------------|-------------|

  Gtr I

|-(0)-----------|--------------|--------------|-0----|
|-(0)-----------|--3-----------|-3------------|-0----|
|-(2)-----------|--0-----------|-2------------|-2----|
|-(2)-----------|--0-----------|-0------------|-2----|
|-(0)-----------|--------------|-0------------|-0----|
|---------------|--3-----------|--------------|------|
 
 Gtr III

|---------------|--------------|---------------|-------|
|-------------7s|=12-----------|---------------|-------|
|-------------7s|=12-------12s=|==7----(7)\----|--2----|
|---------------|----------12s=|==7----(7)\----|--2----|
|---------------|--------------|---------------|--0----|
|---------------|--------------|---------------|-------|

|----------------|-------------|
|----------------|-------------|
|-(2)--(2)-------|-(2)--(2)----|
|-(2)--(2)-------|-(2)--(2)----|
|-(0)--(0)-------|-(0)--(0)----|
|----------------|-------------|


  Gtrs I, II
 
|----------------|----------------|---------------|----------------------|
|-0----0-(0)--0--|-0----0-(0)--0--|----------0----|----------------------|
|-4----2-(2)--0--|-0----0-(0)--0--|----------2----|----------------------|
|-5----4-(4)--2--|-4----2-(2)-----|----------2----|----------------------|
|----------------|-5----3-(3)--2--|-3b4p0-0--0----|-3b4-0-0-0-----0-0-0--|
|----------------|----------------|---------------|-----------3b5--------|


|----------------|----------------|---------------------|------------------|
|-0----0-(0)--0--|-0----0-(0)--0--|---------------------|------------------|
|-4----2-(2)--0--|-0----0-(0)--0--|---------------------|---------------0--|
|-5----4-(4)--2--|-4----2-(2)-----|---------------------|---------0-2-4----|
|----------------|-5----3-(3)--2--|-3b4-0-0-0-----0-0---|---0-2-4----------|
|----------------|----------------|-----------3b5-----0-|-3----------------|


  Gtr I
 
|----------------|----------------|---------------|----------------------|
|-0----0-(0)--0--|-0----0-(0)--0--|----------0----|----------------------|
|-4----2-(2)--0--|-0----0-(0)--0--|----------2----|----------------------|
|-5----4-(4)--2--|-4----2-(2)-----|----------2----|----------------------|
|----------------|-5----3-(3)--2--|-3b4p0-0--0----|-3b4-0-0-0-----0-0-0--|
|----------------|----------------|---------------|-----------3b5--------|

 Gtr II
 ~~~~~~~~~~~~~~~~~~~~~~~~~~~~~~~
 
|----------------|----------------|---------------|----------------------|
|----------------|----------------|----------0----|----------------------|
|-4----2-(2)-----|----------------|----------2----|----------------------|
|-------------5--|-4----2-(2)-----|----------2----|----------------------|
|----------------|-------------5--|-3b4-0-0--0----|-3b4-0-0-0-----0-0-0--|
|----------------|----------------|---------------|-----------3b4--------|


  Gtr III

|----------------|----------------|---------------------|----------------------|
|-0----0-(0)--0--|-0----0-(0)--0--|---------------------|----------------------|
|-4----2-(2)--0--|-0----0-(0)--0--|---------------------|----------------------|
|-5----4-(4)--2--|-4----2-(2)-----|---------------------|---------------2--2---|
|----------------|-5----3-(3)--2--|-3b4-0-0-------0-0---|-----0-3b4-(3)-0--0---|
|----------------|----------------|---------0-3b4-----0-|-3b4------------------|

 Gtr II
 ~~~~~~~~~~~~~~~~~~~~~~~~~~~~~~~
[ Tab from: http://www.guitartabs.cc/tabs/s/slaughter/fly_to_the_angels_tab_ver_3.html ]
|----------------|----------------|---------------------|----------------------|
|----------------|----------------|---------------------|----------------------|
|-4----2-(2)-----|----------------|---------------------|----------------------|
|-------------5--|-4----2-(2)-----|---------------------|---------------2--2---|
|----------------|-------------5--|-3b4-0-0-------0-0---|-----0-3b4-(3)-0--0---|
|----------------|----------------|---------0-3b4-----0-|-3b4------------------|

  Gtr I

|--------------------|-------------------|
|--8--8-8--------8-8-|-10--------8---7\--|
|--7--7-7--------7-7-|-11--------7---7\--|
|--9--9-9--------9-9-|-12--------9---7\--|
|--------------------|-------------------|
|--------------------|-------------------|

 Gtr II

|--------------------|-------------------|
|--0------0-(0)--0---|--0-----0-(0)--0---|
|--4------2-(2)--0---|--0-----0-(0)--0---|
|--5------4-(4)--2---|--4-----2-(2)------|
|--------------------|--5-----3-(3)--2---|
|--------------------|-------------------|

 Gtr III
  ~~~~~~~~~~~~~~~~~~~~~~~~~~~~~     ~~

|--------------------|-------------------|
|--------------------|-------------------|
|-/4------2-(2)------|-------------------|
|----------------5---|--4-----2-(2)------|
|--------------------|---------------5---|
|--------------------|-------------------|

|---------------|----------------------|
|---------------|----------------------|
|-2-------------|-2--------------------|
|-2-------------|-2--------------------|
|-0-------------|-0--------------------|
|---------------|----------------------|

|---------------|----------------------|
|----------0----|----------------------|
|----------2----|----------------------|
|----------2----|----------------------|
|-3b4p0-0--0----|-3b4-0-0-0-----0-0-0--|
|---------------|-----------3b5--------|

|---------------|----------------------|
|----------0----|----------------------|
|----------2----|----------------------|
|----------2----|----------------------|
|-3b4p0-0--0----|-3b4-0-0-0-----0-0-0--|
|---------------|-----------3b4--------|

|-------------------|-------------------|
|-8--8-8--------8-8-|-10--------8---7\--|
|-7--7-7--------7-7-|-11--------7---7\--|
|-9--9-9--------9-9-|-12--------9---7\--|
|-------------------|-------------------|
|-------------------|-------------------|

|-------------------|-------------------|
|-0------0-(0)--0---|--0-----0-(0)--0---|
|-4------2-(2)--0---|--0-----0-(0)--0---|
|-5------4-(4)--2---|--4-----2-(2)------|
|-------------------|--5-----3-(3)--2---|
|-------------------|-------------------|

 ~~~~~~~~~~~~~~~~~~~~~~~~~~~~~~~~~~~~~
|-------------------|-------------------|
|-------------------|-------------------|
|-4------2-(2)------|-------------------|
|---------------5---|--4-----2-(2)------|
|-------------------|---------------5---|
|-------------------|-------------------|

|---------------------|------------------------|
|---------------------|------------------------|
|-2-------------------|-2----------------------|
|-2-------------------|-2----------------------|
|-0-------------------|-0----------------------|
|---------------------|------------------------|

|---------------------|------------------------|
|---------------------|------------------------|
|---------------------|------------------------|
|---------------------|-----------------2--2---|
|-3b4-0-0-------0-0---|-----0-3b4.5-(3)-0--0---|
|---------0-3b4-----0-|-3b4--------------------|

|---------------------|------------------------|
|---------------------|------------------------|
|---------------------|------------------------|
|---------------------|------------------------|
|---------------------|------------------------|
|---------------------|------------------------|


                                                           D.S. al Coda
                                                                       $
|--------------------|-------------------|--------------|----------------||
|--8--8-8--------8-8-|-10--------8---7\--|----0---------|----------------||
|--7--7-7--------7-7-|-11--------7---7\--|------2-------|----------------||
|--9--9-9--------9-9-|-12--------9---7\--|--------2-----|----------------||
|--------------------|-------------------|-0---------0--|-(0)------------||
|--------------------|-------------------|--------------|----------------||

|--------------------|-------------------|--------------|----------------||
|--0------0-(0)--0---|--0-----0-(0)--0---|-0------------|-(0)------------||
|--4------2-(2)--0---|--0-----0-(0)--0---|-2------------|-(2)------------||
|--5------4-(4)--2---|--4-----2-(2)------|-2------------|-(2)------------||
|--------------------|--5-----3-(3)--2---|-0------------|-(0)------------||
|--------------------|-------------------|--------------|----------------||

  ~~~~~~~~~~~~~~~~~~~~~~~~~~~~~~~~~~~~~
|--------------------|-------------------|--------------|----------------||
|--------------------|-------------------|--------------|-----------7/---||
|-/4------2-(2)------|-------------------|--------------|-----------7/---||
|----------------5---|--4-----2-(2)------|--------------|-----------7/---||
|--------------------|---------------5---|--------------|----------------||
|--------------------|-------------------|--------------|----------------||


To Coda
  &
  Gtr I

|-----------0--------|----------------------|---------------|
|-----------0--------|----------------------|--3----3-3--3--|
|-----------2--------|----------------------|--0----0-0--0--|
|-----------2--------|----------------------|--0----0-0--0--|
|---5--4-0--0--------|------0-0-0-3b4-0-0-0-|---------------|
|------------------0-|--3b5-----------------|--3------3--3--|

 Gtr II

|--------------------|----------------------|---------------|
|-/12----------------|------------------7s==|=10------------|
|-/12-----------12s==|=14---------------7s==|=10------------|
|-/12----------------|------------------7s==|=10------------|
|--------------------|----------------------|---------------|
|--------------------|----------------------|---------------|

|---------------------|---------0----|-(0)----|
|-3--------(3)--------|---------0----|-(0)----|
|-2--------(2)--------|---------2----|-(2)----|
|-0--------(0)--------|---------2----|-(2)----|
|-0--------(0)-4-5--4-|--5-4-0--0----|-(0)----|
|---------------------|--------------|--------|

  Gtr III

|---------------------|--------------|--------|
|---10----(10)-----10s|=12-----------|--------|
|------------------10s|=12-----------|--------|
|---------------------|--------------|--------|
|---------------------|--------------|--------|
|---------------------|--------------|--------|

  Gtr I

|--------------------|-------------------|
|--0------0-(0)--0---|--0-----0-(0)--0---|
|--4------2-(2)--0---|--0-----0-(0)--0---|
|--5------4-(4)--2---|--4-----2-(2)------|
|--------------------|--5-----3-(3)--2---|
|--------------------|-------------------|

 Gtr II

|--------------------|-------------------|
|--8--8-8--------8-8-|-10--------8---7\--|
|--7--7-7--------7-7-|-11--------7---7\--|
|--9--9-9--------9-9-|-12--------9---7\--|
|--------------------|-------------------|
|--------------------|-------------------|

 Gtr III
  ~~~~~~~~~~~~~~~~~~~~~~~~~~~~~~~~~~~~~

|--------------------|-------------------|
|--------------------|-------------------|
|-/4------2-(2)------|-------------------|
|----------------5---|--4-----2-(2)------|
|--------------------|---------------5---|
|--------------------|-------------------|

|---------------|-----------------------|
|----------0----|-----------------------|
|----------2----|-----------------------|
|----------2----|-----------------------|
|-3b4p0-0--0----|--3b4-0-0-0-----0-0-0--|
|---------------|------------3b4--------|

|---------------|-----------------------|
|---------------|-----------------------|
|-2-------------|-(2)-------------------|
|-2-------------|-(2)-------------------|
|-0-------------|-(0)-------------------|
|---------------|-----------------------|

|---------------|-----------------------|
|----------0----|-----------------------|
|----------2----|-----------------------|
|----------2----|-----------------------|
|-3b4p0-0--0----|--3b4-0-0-0-----0-0-0--|
|---------------|------------3b4--------|

|-----------------|----------------|
|--0----0-(0)--0--|-0----0-(0)--0--|
|--4----2-(2)--0--|-0----0-(0)--0--|
|--5----4-(4)--2--|-4----2-(2)-----|
|-----------------|-5----3-(3)--2--|
|-----------------|----------------|

  ~~~~~~~~~~~~~~~~~~~~~~~~~~~~~~~
|-----------------|----------------|
|-----------------|----------------|
|-/4----2-(2)-----|----------------|
|--------------5--|-4----2-(2)-----|
|-----------------|-------------5--|
|-----------------|----------------|

  Gtr I

|----------|-----------|-----------------|
|----------|-----------|-3------3-3--3---|
|----------|-----------|-0------0-0--0---|
|----------|-----------|-0------0-0--0---|
|----------|-----------|-----------------|
|----------|-----------|-3--------3--3---|

 Gtr III

|----------|-----------|-3--3-3------3-3-|
|----------|-----------|-3--3-3------3-3-|
|----------|-----------|-4--4-4------4-4-|
|----------|-----------|-5--5-5------5-5-|
|----------|-----------|-----------------|
|----------|-----------|-----------------|


  Gtr I

|----------------|-----------!0----|-(0)----|
|-3--------------|-----------!0----|-(0)----|
|-2--------------|-----------!2----|-(2)----|
|-0--------------|-----------!2----|-(2)----|
|-0----0-5-4-5-4-|-5-7--5--4-!0----|-(0)----|
|----------------|-----------------|--------|

  Gtr III

|--------3-3-3---|-----!0----------|-(0)----|
|-3------3-3-3---|-----!0----------|-(0)----|
|-2------2-2-2---|-----!2----------|-(2)----|
|-0------0-0-0---|-----!2----------|-(2)----|
|-0--------------|-0---!0----------|-(0)----|
|----------------|-----------------|--------|


  Gtr I

|---------------|---------------|---------------0--------|-0----|
|---------------|---------------|-----------0-------0----|-0----|
|---------------|---------------|--------2------------2--|-2----|
|---------------|---------------|-----2------------------|-2----|
|---------------|---------------|--0---------------------|-0----|
|---------------|---------------|------------------------|------|

| Gtr III
|---------------|---------------|------------------------|-------|
|---------------|---------------|-15s14-15s14------------|-------|
|---------------|---------------|--------------14\-------|-------|
|---------------|---------------|-------------(14)\------|-------|
|---------------|---------------|------------------------|-------|
|---------------|---------------|------------------------|-------|
Comments