Slashs Snakepit - Shine Chords & Tabs

 

Shine Chords & Tabs

Slashs Snakepit Chords & Tabs

Version: 1 Type: Tab 1 rating
1 star 2 stars 3 stars 4 stars 5 stars
comments

Shine Tab

 
        Shine 
     Written by 
   SLASH's Snakepit


  Tabulature by Camille 
    (Thanks, Camille!)


[ Tab from: http://www.guitartabs.cc/tabs/s/slashs_snakepit/shine_tab.html ]
          |--------------------------------------------5---|
          |-------5-------------7----------5-------------5-|
          |-----4---4---4-----4----------4---4---4---------|
          |-4h6-------6---6h7--------4h6-------6---6h7-----|
          |------------------------------------------------|
          |------------------------------------------------|

     |-----------------------------| |--------------------------|
     |-----------------------------| |--------------------------|
     |-----------------------------| |--------------------------|
     |-----------------------------| |--------------------------|
     |-5-6-7---------5--6-7--5-6-7-| |-----2--5-6-7-5-----------|
     |-------0-5-6-7---------------| |-3b--0----------7-0-7-6-5-| 

 
Comments