Slashs Snakepit - Obsession Confession Chords & Tabs

 

Obsession Confession Chords & Tabs

Slashs Snakepit Chords & Tabs

Version: 1 Type: Tab 0 ratings
1 star 2 stars 3 stars 4 stars 5 stars
comments

Obsession Confession Tab

Obsession/Confession
Slash
Curdled soundtrack


Tabbed by:    Shaun Futter

  Intro                                                                      
|---10--10--10--10--10--10--10--10--10------9--10-----12--10--9---------|
|---11--11--11--11--11--11--11--11--11--10-----------------------11-----|
|---10--10--10--10--10--10--10--10--10----------------------------------|
|-----------------------------------------------------------------------|
|-----------------------------------------------------------------------|
|-----------------------------------------------------------------------|

|---9--10----------9----------------------------------------------------|
|----------11--10-----13--11--10--13--11--10------11--10----------10----|
|---------------------------------------------12----------12--10--------|
|-----------------------------------------------------------------------|
|-----------------------------------------------------------------------|
|-----------------------------------------------------------------------|

|-----------------------------------------------------------------------|
|-----------------------------------------------------------------------|
|---12--10--9----------------------------------------6--7/9-------------|
|--------------12--10--9------10--9----------7---/7---------------------|
|-------------------------11---------11--10-----------------------------|
|-----------------------------------------------------------------------|

   Intro ends                                                          
|--------------|
|--------------|
|---10p9--7\6--|
|--------------|
|--------------|
|--------------|

 Next section begins
|-------13--12--13------13--12--13------13--12--13------13--12--13------|
|---10--------------10--------------10--------------10------------------|
|-----------------------------------------------------------------------|
|-----------------------------------------------------------------------|
|-----------------------------------------------------------------------|
|-----------------------------------------------------------------------|

|-------13--12--13------13--12--13------13--12--13------13--12--13------|
|---11--------------11--------------11--------------11------------------|
|-----------------------------------------------------------------------|
|-----------------------------------------------------------------------|
|-----------------------------------------------------------------------|
|-----------------------------------------------------------------------|
[ Tab from: http://www.guitartabs.cc/tabs/s/slashs_snakepit/obsession_confession_tab.html ]
|-------13--12--13-----10--9--10------10--9--10-----8--6--8-----9-------|
|---13--------------8-------------11-------------6---------/10----------|
|-----------------------------------------------------------------------|
|-----------------------------------------------------------------------|
|-----------------------------------------------------------------------|
|-----------------------------------------------------------------------|

|-------9------9------9------9------9------9------9------13--12--13-----|
|---11-----10-----11-----10-----11-----10-----11-----10-----------------|
|-----------------------------------------------------------------------|
|-----------------------------------------------------------------------|
|-----------------------------------------------------------------------|
|-----------------------------------------------------------------------|

|-------12--10--12-----11--10--11------10--9--10--10-----10--9----------|
|---13--------------8--------------11---------------------------11------|
|-----------------------------------------------------------------------|
|-----------------------------------------------------------------------|
|-----------------------------------------------------------------------|
|-----------------------------------------------------------------------|

|---9-------------------------------------------------------------------|
|-------11---9h10p9---9h10p9--------------------------------------------|
|------------------------------12--10--9-------------6--7/9--10p9--7/6--|
|-------------------------------------------12---/7---------------------|
|-----------------------------------------------------------------------|
|-----------------------------------------------------------------------|

|-----------------------------------------------------------------------|
|---------6--5-----------------6--5--------8--8--7--5-------------------|
|------7--------7-----------7--------7-----------------7-----------7----|
|---7--------------7-----7--------------7-----------------7-----7-------|
|-----------------------------------------------------------------------|
|-----------------------------------------------------------------------|

|-----------------------------------------------------------------------|
|---/11--10--8-----7--5-----------------6--5-----------------6--5-------|
|------------------------7--7--------7--------7-----------7--------7----|
|---------------------------------7--------------7-----7----------------|
|-----------------------------------------------------------------------|
|-----------------------------------------------------------------------|

|-----------------------------------------------------------------------|
|---------------5--8--6--5----------------------------------------------|
|------------7--------------5--7----------------------------------------|
|---7-----7-------------------------------------------------------------|
|-----------------------------------------------------------------------|
|-----------------------------------------------------------------------|

NOTATION:
h = hammer-on    p = pull-off    / = slide up                  
\ = slide down   ~ = vibrato     ^ = bend

*****************************************************
|    Appetite for tablatures home page              |
|    http://www.geocities.com/SunsetStrip/7317/     |
*****************************************************           

Comments