Slashs Snakepit - Lower Chords & Tabs

 

Lower Chords & Tabs

Slashs Snakepit Chords & Tabs

Version: 1 Type: Tab 0 ratings
1 star 2 stars 3 stars 4 stars 5 stars
comments

Lower Tab

Lower
Slash's Snakepit
It's five o'clock somewhere

Tabbed by:     Jeff
                                                                        

|--13b----br11~~~-------18b----18b--18br---15---------------------------------18----|
|-------------------15------17---------------------------18b--18--16--18------------|
|-----------------------------------------------------------------------------------|
|-----------------------------------------------------------------------------------|
|-----------------------------------------------------------------------------------|
|-----------------------------------------------------------------------------------|

|---------------------------18------------------------------------------------------|
|--17gb(ghost-bend)-----17gb--16--18--16br------16b---16b---------------------------|
|------------------------------------------------------------15---17--------17---15-|
|-----------------------------------------------------------------------------------|
|-----------------------------------------------------------------------------------|
|-----------------------------------------------------------------------------------|
[ Tab from: http://www.guitartabs.cc/tabs/s/slashs_snakepit/lower_tab.html ]
|--------------------------------------16b-16-15----1615h16p15--15------------------|
|--16b--16b-------16b----16b---------------------18----------------18---18--18b--18-|
|--------------17-----15------17--15------------------------------------------------|
|-----------------------------------------------------------------------------------|
|-----------------------------------------------------------------------------------|
|-----------------------------------------------------------------------------------|

|-----------------------------------------------------------------------------------|
|--16--18--16--15h16p15---15--------------------------------------------------------|
|------------------------------17---17h19p-17s--15--17--15--17----------------------|
|-----------------------------------------------------------------15s--13--15--13---|
|-----------------------------------------------------------------------------------|
|-----------------------------------------------------------------------------------|

|-----------------this-is-the-part--------------------------------------------------|
|------------------that's missing---------------------------------------------------|
|---------------------------------------------------------------10b---8---8brbrbr---|
|--15--13--------------------------------------------------10-----------------------|
|----------15--------------------------6--6--8--6--8--------------------------------|
|-----------------------------------------------------------------------------------|

*****************************************************
|    Appetite for tablatures home page              |
|    http://www.geocities.com/SunsetStrip/7317/     |
*****************************************************

Comments