Slashs Snakepit - Just Like Anything Chords & Tabs

 

Just Like Anything Chords & Tabs

Slashs Snakepit Chords & Tabs

Version: 1 Type: Tab 0 ratings
1 star 2 stars 3 stars 4 stars 5 stars
comments

Just Like Anything Tab

Just Like Anything
Written by 
SLASH's Snakepit

  Tabbed by J.B. 
  
As usual this is played with the tuning a half step lower.

I'll try to get the solos but for now here is the rhythym.
I'm open to corrections or any suggestions.  
EMail me at JBS385@aol.com

Intro         Repeat 4 Times
|----------------------------------------------------|
|----------------------------------------------------|
|----------------------------------------------------|
|----------------------------------------------------|
|-----------1-2-3-3-1-2-3-1-----------1-2-3-1--------|
|-3-3-1-2-3-----------------3-3-1-2-3---------3------|

Rhythm While Singing Goes On
            Rest-----|               Rest-----|
|---------------------------------------------------------------------|
|---------------------------------------------------------------------|
|---------------------5--3---------------------5-3---------------5-3--|
|---------------------5--3---------------------5-3-----------x-5-5-3--|
|---------------------3--1---------------------3-1-----------x-5-3-1--|
|-3-3-1-2-3----------------3-3-1-2-3---------------3-3-1-2-3-x-3------|

|---------------------------------------------------------------------|
|---------------------------------------------------------------------|
|---------------5-3----------------5-3--------------------------------|
|-5-5-3-4-5-x-5-5-3--5-5-3-4-5-x-5-5-3-----5-5-3-4-5-5----------------|
|-5-5-3-4-5-x-5-3-1--5-5-3-4-5-x-5-3-1-----5-5-3-4-5-5----------------|
|-3-3-1-2-3-x-3------3-3-1-2-3-x-3---------3-3-1-2-3-3----------------|

Repeat 2 Times
|----------------------------------------------------|
|----------------------------------------------------|
|----------------------------------------------------|
|----------------------------------------------------|
|-----------1-2-3-3-1-2-3-1-----------1-2-3-1--------|
|-3-3-1-2-3-----------------3-3-1-2-3---------3------|

            Rest-----|               Rest-----|
|---------------------------------------------------------------------|
|---------------------------------------------------------------------|
|---------------------5--3---------------------5-3---------------5-3--|
|---------------------5--3---------------------5-3-----------x-5-5-3--|
|---------------------3--1---------------------3-1-----------x-5-3-1--|
|-3-3-1-2-3----------------3-3-1-2-3---------------3-3-1-2-3-x-3------|
[ Tab from: http://www.guitartabs.cc/tabs/s/slashs_snakepit/just_like_anything_tab.html ]
|---------------------------------------------------------------------|
|---------------------------------------------------------------------|
|---------------5-3----------------5-3--------------------------------|
|-5-5-3-4-5-x-5-5-3--5-5-3-4-5-x-5-5-3-----5-5-3-4-5-5----------------|
|-5-5-3-4-5-x-5-3-1--5-5-3-4-5-x-5-3-1-----5-5-3-4-5-5----------------|
|-3-3-1-2-3-x-3------3-3-1-2-3-x-3---------3-3-1-2-3-3----------------|

_________________
Time To Rest Here
_________________

Now The Rhythm For The Solo    Repeat 4 Times
|----------------------------------------------------|
|----------------------------------------------------|
|----------------------------------------------------|
|----------------------------------------------------|
|-----------1-2-3-3-1-2-3-1-----------1-2-3-1--------|
|-3-3-1-2-3-----------------3-3-1-2-3---------3------|


            Rest-----|               Rest-----|
|---------------------------------------------------------------------|
|---------------------------------------------------------------------|
|---------------------5--3---------------------5-3---------------5-3--|
|---------------------5--3---------------------5-3-----------x-5-5-3--|
|---------------------3--1---------------------3-1-----------x-5-3-1--|
|-3-3-1-2-3----------------3-3-1-2-3---------------3-3-1-2-3-x-3------|

|---------------------------------------------------------------------|
|---------------------------------------------------------------------|
|---------------5-3----------------5-3--------------------------------|
|-5-5-3-4-5-x-5-5-3--5-5-3-4-5-x-5-5-3-----5-5-3-4-5-5----------------|
|-5-5-3-4-5-x-5-3-1--5-5-3-4-5-x-5-3-1-----5-5-3-4-5-5----------------|
|-3-3-1-2-3-x-3------3-3-1-2-3-x-3---------3-3-1-2-3-3----------------|

The Rhythm For Solo #2   Repeat 2 Times
|----------------------------------------------------|
|----------------------------------------------------|
|----------------------------------------------------|
|----------------------------------------------------|
|-----------1-2-3-3-1-2-3-1-----------1-2-3-1--------|
|-3-3-1-2-3-----------------3-3-1-2-3---------3------|

          Repeat 8 Times
 Palm Mute-----------------------------------------|
|----------------------------------------------------|
|----------------------------------------------------|
|----------------------------------------------------|
|----------------------------------------------------|
|---------------3-1----------------------------------|
|-3-1-2-3-1-2-3--------------------------------------|

Rhythm For Solo #3  Repeat 6 Times           
|----------------------------------------------------|
|----------------------------------------------------|
|----------------------------------------------------|
|----------------------------------------------------|
|-----------1-2-3-3-1-2-3-1-----------1-2-3-1--------|
|-3-3-1-2-3-----------------3-3-1-2-3---------3------|





Comments