Slashs Snakepit - Doin Fine Chords & Tabs

 

Doin Fine Chords & Tabs

Slashs Snakepit Chords & Tabs

Version: 1 Type: Tab 0 ratings
1 star 2 stars 3 stars 4 stars 5 stars
comments

Doin Fine Tab

Doin' Fine
Slash's Snakepit
It's five o' clock somewhere

Tabbed by:    Stix Taimur
                                                   
 Intro:
|--------------------------------------------------------------------------------------|
|--------------------------------------------------------------------------------------|
|---2-0--------5-2-(0)---------------------------------------------------------2--2~~~-|
|--------4-2-0----------4-2-0-4-2-(0)--1--2-1-2-1-0---0-1-0----0-------2---------------|
|------------------------------------------------------------3-------3----3-4----------|
|--------------------------------------------------------------------------------------|
          *Play extremely fast
[ Tab from: http://www.guitartabs.cc/tabs/s/slashs_snakepit/doin_fine_tab.html ]
 Riff 1: 
|-------------------------------------------------------|
|-------------------------------------------------------|
|----------------5---------------------------5--7­--5---|
|--7--7-(5)----7--5--6-7--5-7-(7)-5---------------7-----|
|-------------------------------------------------------|
|-------------------------------------------------------|

*****************************************************
|    Appetite for tablatures home page              |
|    http://www.geocities.com/SunsetStrip/7317/     |
*****************************************************

                                                   

                                                                                


Comments