Slashs Snakepit - Beggers And Hangers On Chords & Tabs

 

Beggers And Hangers On Chords & Tabs

Slashs Snakepit Chords & Tabs

Version: 1 Type: Tab 1 rating
1 star 2 stars 3 stars 4 stars 5 stars
comments

Beggers And Hangers On Tab

BEGGARS & HANGERS ON (goodnight tonight)
 
intro
|-----------------------------------------------------------|
|-----------------------------------------------------------|
|-----------------------------------------------------------|
|---------3-s-2--0--0-----0--0--3--0--0--3--0--3-s-2--0--0--|
|--8-s-0---------------3------------------------------------|
|-----------------------------------------------------------|
 
|-----------------------------------------------------------------|
|-----------------------------------------------------------------|
|-----------------------------------------------------------------|
|-----0--0--3--0--0--3-s-5--3-s-2--0-----0--0--3--0--0--3--0-s-3--|
|--3----------------------------------3---------------------------|
|-----------------------------------------------------------------|
 
|---------------------------------|
|---------------------------------|
|---------------------------------|
|--3-s-2--0-----0--5-s-3-s-2-s-0--|
|------------3--------------------|
|---------------------------------| 
 


 
Riprende inizio con note distorte due volte
MIc|-----------------------------------------------------
SI |-----------------------------------------------------
SOL|-----------------------------------------------------
RE |--3--2-----------3-----------3--2-----------3-----3--5--|
LA |--------5--3--5-----5--4--5--------5--3--5-----5--------|
MIb|-----------------------------------------------------
 
MIc|-----------------------------------------------------------|
SI |-----------------------------------------------------------|
SOL|-----------------------------------------------------------|
RE |--3--2-----------3--------------3--2-----------------5--5--|
LA |--------5--3--5-----5--4--5--5--------5--5--5--3--5--------|
MIb|-----------------------------------------------------------|
 
 
MIc|--------------------|
SI |--------------------|
SOL|--------------------|
RE |--3--2--------------|
LA |--------5--5--3--5--|
MIb|--------4-----------| 
 
[ Tab from: http://www.guitartabs.cc/tabs/s/slashs_snakepit/beggers_and_hangers_on_tab.html ]
 
solo 1
MIc|--------------------------------------------------------------|
SI |--8-h-7-----------8-h-7-----------7--8--8-h-7-----------------|
SOL|---------9--7--9---------9--7--9---------------9-h-7--9-s-11--|
RE |--------------------------------------------------------------|
LA |--------------------------------------------------------------|
MIb|--------------------------------------------------------------|
 
MIc|-----------------------------------------------10--8--|
SI |------------------------------7--8-h-7----------------|
SOL|--11-h-9-s-7--11-h-9-s-7-h-9------------9-h-7---------|
RE |------------------------------------------------------|
LA |------------------------------------------------------|
MIb|------------------------------------------------------|
 
MIc|--10--10-h-8-h-7----------------------------|
SI |------------------8-------------------------|
SOL|---------------------11-h-9-s-7-----9-s-11--|
RE |---------------------------------9----------|
LA |--------------------------------------------|
MIb|--------------------------------------------|                                                                                              Beggars and hangers on
Slash's Snakepit
It's five o'clock somewhere

Tabbed by: Michael Kane



 Guitar solo:2
|---------------------------------------------------|
|-10-9-7---7~-----10-9-7---7h9h10~----10-9-7---7h9~-|
|--------9---------------9-------------------9------|
|---------------------------------------------------|
|---------------------------------------------------|
|---------------------------------------------------|

|------------------------------------10b-10~--10b-10br-9-------------------|
|-----------------------10-9-7---7h9---------------------10~---------------|
|-11br--11brp9----11b~---------9-----------------------------11br-9----11b-|
|--------------11---------------------------------------------------11-----|
|--------------------------------------------------------------------------|
|--------------------------------------------------------------------------|

*****************************************************
|    Appetite for tablatures home page              |
|    http://www.geocities.com/SunsetStrip/7317/     |
*****************************************************

Comments