Slashs Snakepit - Beggars And Hangers On Chords & Tabs

 

Beggars And Hangers On Chords & Tabs

Slashs Snakepit Chords & Tabs

Version: 4 Type: Tab 0 ratings
1 star 2 stars 3 stars 4 stars 5 stars
comments

Beggars And Hangers On Tab

Beggars and hangers on
Slash's Snakepit
It's five o'clock somewhere

Tabbed by:     ???


 Guitar solo:
|---------------------------------------------------|
|-10-9-7---7~-----10-9-7---7h9h10~----10-9-7---7h9~-|
|--------9---------------9-------------------9------|
|---------------------------------------------------|
|---------------------------------------------------|
|---------------------------------------------------|
[ Tab from: http://www.guitartabs.cc/tabs/s/slashs_snakepit/beggars_and_hangers_on_tab_ver_4.html ]
|------------------------------------10b-10~--10b-10br-9-------------------|
|-----------------------10-9-7---7h9---------------------10~---------------|
|-11br--11brp9----11b~---------9-----------------------------11br-9----11b-|
|--------------11---------------------------------------------------11-----|
|--------------------------------------------------------------------------|
|--------------------------------------------------------------------------|
Comments