Slashs Snakepit - Beggars And Hangers On Chords & Tabs

 

Beggars And Hangers On Chords & Tabs

Slashs Snakepit Chords & Tabs

Version: 1 Type: Tab 0 ratings
1 star 2 stars 3 stars 4 stars 5 stars
comments

Beggars And Hangers On Tab

   
Beggars and hangers on
Slash's snakepit
It's five o'clock somewhere


Chorus goes something like this:

E|----------------------------------------------|
B|----------------------------------------------|
G|----------------------------------------------|
D|----------------------------------------------|
A|--10-9-7-5-7--10-9-7-5-7--10-9-7-5-7-0-7-5-7--|
E|----------------------------------------------|

--------------------------------------------------------------------

Beggars and hangers on
Slash's snakepit
It's five o'clock somewhere

[ Tab from: http://www.guitartabs.cc/tabs/s/slashs_snakepit/beggars_and_hangers_on_tab.html ]
Intro.
Clean guitar "recommended guitar set on rhythm pick ups."
Drop "D" tuning, half step down.
|------------------------------------------------------------------------------|
|------------------------------------------------------------------------------|
|------------------------------------------------------------------------------|
|--2p0-----3------0-------0---3---0-----2p0h3---0--------0---3/5------------|
|-------0-----3-0----3---------3---0-------0--3--0---3----------3/5-------|
|-----------------------3-0----------------------------------3--0-------3/5--|

Verse:
        D                        Am
Well I know, you couldn't love me
                          G
Cause you're promised to a
              D
   wealthy man
        D                     Am
Take a look, what are you seein'?
           G                        D
Is that a noose or a wedding band?


Comments