Slashs Snakepit - Beggars And Hangers On Chords & Tabs

 

Beggars And Hangers On Chords & Tabs

Slashs Snakepit Chords & Tabs

Version: 1 Type: Bass Tab 0 ratings
1 star 2 stars 3 stars 4 stars 5 stars
comments

Beggars And Hangers On Bass Tab

Beggars And Hangers-On by Slashs Snakepit


(0:14)
|-----------|
|-----------|
|--3-0~~~~--|
|-----------|

(0:31)
|-----------|
|-----------|
|--3-3-0~~--|
|-----------|
[ Tab from: http://www.guitartabs.cc/tabs/s/slashs_snakepit/beggars_and_hangers_on_btab.html ]
|-------------------|---------------------------|
|o------------------|-------------------3/5-----|
|o-----2------2-2---|-----2---------------------|
|--0--0---0--0------|-0--0------0-0-0-0---------|   
  
|-----------------|----------------------0-0----|
|-----------------|--------------------------2-o|
|-----2------2-2--|-----2----3-2-0---0--3------o|
|-0--0---0--0-----|-0--0---0--------3--0--------|

thats all i have so far
Comments