Slashs Snakepit - Been There Lately Chords & Tabs

 

Been There Lately Chords & Tabs

Slashs Snakepit Chords & Tabs

Version: 1 Type: Tab 0 ratings
1 star 2 stars 3 stars 4 stars 5 stars
comments

Been There Lately Tab

   
##################################################################################
# This file is the author's own work and represents their interpretation of the  #
# song. You may only use this file for private study, scholarship, or research.  #
##################################################################################

hey my name is josh and here is the tab from what i can figure out for
"Been There Lately" (the whole song) , tune down half step and u can fiugre out the timeing,the solo is in the right spots but all the notes might not be right all i did was just kind of make up somthin that kinda sounds like it in the g blues scale  but it sounds right,   my e mail is: vapour_98@hotmail.com

             RIFF A                               END RIFF A
-2-------------------------------------------------------------------------
-3-------------------------------------------------------------------------
-2-------------------------------------------------------------------------
--------------5---x-x--3-3p5--------3-2-----0----5-------------------------
------------------x-x-------------------3s5------------------------------- 
-----------3----3-x-x--------3~--3-6----------1----------------------------

  RIFF B                                      END RIFF B
----------------------------------------------------------------------------
----------------------------------------------------------------------------
----------------------------------------------------------------------------
---x-x-x-5----x-x 3-3p5----x-x--5-------3-----------------------------------
---x-x-x------x-x----------x-x------------5-3~~-----------------------------
-3-x-x-x---3~~x-x--------3-x-x-----3~~--------------------------------------

 RIFF C                                             
---------------------------------------------------------------------------
---------------------------------------------------------------------------
-5-5-5-5-5-5-3-3-----------------------------------------------------------
-5-5-5-5-5-5-3-3--5-5-5-5-5-5-3-3--------2-4-4b5-4-2---2-------------------
-3-3-3-3-3-3-1-1--5-5-5-5-5-5-3-3--0-2-4-------------4---------------------
------------------3-3-3-3-3-3-1-1------------------------------------------      

--------------------------------------------
-----------------5-5-3p5-3p5----5-5-3p5-3p5-
-5----------8--5-5-5-3p5-3p5--5-5-5-3p5-3p5-
-5-2-3~--5--8--5--------------5-------------
-3-2-3~--5--6--3--------------3-------------
---0-1~--3----------------------------------
                                    END RIFF C
[ Tab from: http://www.guitartabs.cc/tabs/s/slashs_snakepit/been_there_lately_tab.html ]
---3------------------------------
---3----5-5-3p5-3p5---------------
---0--5-5-5-3p5-3p5---8~--3~--7~--
-0----5---------------8~--3~--7~--
-2----3---------------6~--1~--5~--
-3--------------------------------

                                          RIFF B 2 TIMES, RIFF C NO REPEATS
-----------------------------------------------------------------
-----------------------------------------------------------------
--------------------------------3s~------------------------------
---xxx-5---xx-3-3p5--xx-----3p5-3s~-------------------------------
---xxx-----xx--------xx------------------------------------------
-3-xxx---3-xx------3-xx-3-6--------------------------------------

GUITAR SOLO

------3----3----3--------------------------------------------------------------
-----3----3----3--5-4-5-4h5p4p3-5-3h5p3-----3-----3----------------------------
-5b7---5b7--5b7-------------------------3b5---3b7---3b5-3---3------------------
----------------------------------------------------------5---5-3--------------
-------------------------------------------------------------------5p4p3-5p4p3-
--------------------------------------------------------------------------------

------------------------------------------------------10b12-10-9-8-------------
--------------------------------8~~-8~~-8~~-8-8b11-8-8------------11--8~-8~-8~-
-------------------3-5p7-3-5-3-------------------------------------------------
---------------3p5-------------------------------------------------------------
---------3-4-5-----------------------------------------------------------------
-6-3p4p6-----------------------------------------------------------------------

----------------------18-17h18p17p15--------15---------------------------------
-18b20--18--15-18-15------------------18b20----18-15-----------------18b20-----
--------18--------------------------------------------17b19-15-17-15-----------
-------------------------------------------------------------------------------
-------------------------------------------------------------------------------
-------------------------------------------------------------------------------

----7-----7----s12--12--7s12--7-----12----12------s15--15--12s15-15-------------
------6-----6--s11--11--6s11--6-------11----11----s14--14--11s14-14-------------
-s7-----7------s12--12--7s12--7--s12----12----12--s15--15--12s15-15-------------
--------------------------------------------------------------------------------
--------------------------------------------------------------------------------
--------------------------------------------------------------------------------

-13b15-11----11-13--------------------------------------------------------------
----------13-------13b15-11----11-13-11-----13~-13~-13~-13~---------------------
----------------------------12----------12--------------------------------------
--------------------------------------------------------------------------------
--------------------------------------------------------------------------------
--------------------------------------------------------------------------------
Comments