Slashs Snakepit - Be The Ball Chords & Tabs

 

Be The Ball Chords & Tabs

Slashs Snakepit Chords & Tabs

Version: 3 Type: Tab 0 ratings
1 star 2 stars 3 stars 4 stars 5 stars
comments

Be The Ball Tab

Submitted: 4th Jan 2001 @ 15:51
Title: be the ball
Artist: Slash's snakepit
From: It's five O'Clock somewhere(1995)
Written by SLASH.
Submitted by: Billy Sweeney (N.Ireland)

   This song is written entirely by SLASH-from beginning to end.
It's a wicked song with a wicked riff.
This is the fast riff at the start, it also appears in the middle somewhere.
Here goes:
[ Tab from: http://www.guitartabs.cc/tabs/s/slashs_snakepit/be_the_ball_tab_ver_3.html ]
E-------------------------------------------------------------------|
A-------8-9---8---------10-----8--10--8-----------------------------|
D-----8----------8----------8------------8--10----------------------|
G--10---------------10----------------------------------------------|
B-------------------------------------------------------------------|
E-------------------------------------------------------------------|

E-------------------------------------------------------------------|
A--9-----8-9--8--------------8-9--8---------------------------------|
D-----8----------8--------8----------8--7---------------------------|
G-------------------10-9--------------------------------------------|
B-------------------------------------------------------------------|
E-------------------------------------------------------------------|

This is played very fast(listen to tape)
If anyone could give me the rest it would be appreciated.
Any comments, corrections, additions to
                               billysweeneyjnr@hotmail.com

P.S Check out snakepit they rock-SLASH has done it again
Comments