Slashs Snakepit - Back And Forth Again Chords & Tabs

 

Back And Forth Again Chords & Tabs

Slashs Snakepit Chords & Tabs

Version: 1 Type: Tab 0 ratings
1 star 2 stars 3 stars 4 stars 5 stars
comments

Back And Forth Again Tab

   
##################################################################################
# This file is the author's own work and represents their interpretation of the  #
# song. You may only use this file for private study, scholarship, or research.  #
##################################################################################

Back and forth again
Slash's Snakepit
It's five o' clock somewhere


Tabbed by:     Stix Taimur


For this song, I would recommend listening to the track first 
to pick up the taps he fits in between the finger picking of major 
chords to create a more stable rhythm. Be sure to use an acoustic 
or steel string to get the exact sound which Slash manages to achieve. 
Repeatedly loop this lick till it getsto a change in the lyrics.

*Use finger picking on a steel string acoustic.*

Intro.
     F       
|----1----------------------------------------------------------|
|----1-----1--------------1-------------------------------------|
|----0h2------2-----------------0-----------0-------------------|
|----3--------3-----0h2-----2------------0----------------------|
|----3--------------3--------------------2------3--2-0h2--------|
|----1-------------------------------3--------------------------|
     T                          *organ is played for the intro.

|----1---------------3---------------------3--2--2--------------|
|----1----1------------3--------1----------3--3--3--------------|
|--0h2---------2--0------0-----0--------0--0--2--2--------------|
|----3------3-----0----------2-----2----0-----0-----2/4---------|
|----3------------2----------3-----3----2-----------------------|
|----1------------3---------------------3-----------------------|
     T
         G   C         C           G          D        E
 Guitar II
|--3--3--3-------------8-----------3---------10-----------------|
|--3--3--3-------------8-----------3---------10---------7-------|
|--0--0--0---0---5/9---------4--------9/11--------------7-------|
|--0--0--0---2---------------5--------------------------7-------|
|--2--2--2---3-------------------------------------7h9----------|
|--3--3--3------------------------------------------------------|
          Now we're back and forth again...
[ Tab from: http://www.guitartabs.cc/tabs/s/slashs_snakepit/back_and_forth_again_tab.html ]
 Guitar solo:
|---------------------------------------------------------10~~--10b-10b--------10h12-12b--|
|----------------------------------8-7-8-10~~-8h10p8p7-------------------10h12------------|
|-12br-10--------------11~~~--------------------------------------------------------------|
|---------12brp10------12~~~--------------------------------------------------------------|
|------------------12---------------------------------------------------------------------|
|-----------------------------------------------------------------------------------------|

|-----------10h12h13p12p10-13b----------10h12b-------------------------------------------|
|--10h12h13----------------------10h12----------15b-12h15p12-----------------------------|
|----------------------------------------------------------------14brp12----12h14p12~~---|
|------------------------------------------------------------------------14--------------|
|----------------------------------------------------------------------------------------|
|----------------------------------------------------------------------------------------|

|------------------------------------14--15-14-15p14p12----12h14p12----12-----|
|--15b-15-12-15--1515-12h15p12-------------------------15----------15----15b--|
|---------------------------------14------------------------------------------|
|-----------------------------------------------------------------------------|
|-----------------------------------------------------------------------------|
|-----------------------------------------------------------------------------|

|------------------------------------------------------------------------------------------|
|--12h15p12--------------------------------------------------------------------------------|
|------------14b--12h14p12--14-12-14-12-11--11h12p11---------------------------------------|
|------------------------------------------------------14---14-13-14p13p12-----------------|
|----------------------------------------------------------------------------14-13-12/10---|
|------------------------------------------------------------------------------------------|

|----------------------|
|----------------------|
|----------------------|
|---------12-14--------|
|-12/14----------------|
|----------------------|

*****************************************************
|    Appetite for tablatures home page              |
|    http://www.geocities.com/SunsetStrip/7317/     |
*****************************************************
Comments