Slash And Kravitz - Always On The Run Chords & Tabs

 

Always On The Run Chords & Tabs

Slash And Kravitz Chords & Tabs

Version: 3 Type: Tab 0 ratings
1 star 2 stars 3 stars 4 stars 5 stars
comments

Always On The Run Tab

   
Song:  Always On The Run 
Words and music by: Lenny Kravitz and Slash
Album: Mama Said

Tabed by: rjan Olsen  
Send feedback to orjano59@hotmail.com 

Speed=85
Standard tunning

Intro (0:01)
Guitar 1. Slash
Fig 1a
|--------------------------------|---------------------------------|
|--------------------------------|---------------------------------|
|--------------------------------|---------------------------------|
|---------------------5p0--------|---------------------------------|
|----7--5p4----5---------------7-|----7--5p4----5---5-5p2-----0h2--|
|-0----------0------0-------0----|-0----------0-----------3p0------|
  *p.m............................................................

*Either do a very light p.m. by the bridge or playt with a "clean"
distort

Guitar 2. Lenny(0:12)
Fig 1b
|-------------------------|------------------------11s12-12-12-|
|-------------------------|------------------------11s12-12-12-|
|-------------------------|------------------------10s11-11-11-|
|--5--7----------5--x-----|-----5--7---------------------------|
|--------5--7--x------5h7-|-x-x-------5--7--x--x---------------|
|-------------------------|------------------------------------|
(Watch you're muting here cause if you don't it's easy to lose ryhtm)

Chorus

Guitar 1 (0:57)
Fig 2a
|--------------------------|
|--------------------------|
|--------------------------|
|-5-5-x-x-x-7-7-x-x-x------|Then play fig 1a, and so on
|-5-5-x-x-x-7-7-x-x-x------|
|-3-3-x-x-x-5-5-x-x-x------|

Guitar 2 (0:57)
Fig 2b
|-----------------------------|-----------------------------|
|-----------------------------|-----------------------------|
|-----------------------------|-----------------------------|
|-5-x-5--7-----------5--5-----|-----5--7--------------------|
|----------5-x-7-x-7------5h7-|-x-x-------5--7--x-x-5h7-7-7-|
|-----------------------------|-----------------------------|

|-----------------------------|
|-----------------------------|
|-----------------------------|
|-x-x-5--7-----------5--5-----|
|----------5-x-7-x-7------5h7-|
|-----------------------------|

Guitar 2 Chorus (cont'd)
Fig 2c
|----------------------------|------------------------11s12-12-12-|
|----------------------------|------------------------11s12-12-12-|
|----------------------------|---4--------------------10s11-11-11-|
|-----5--7---------5---x-----|-5---5---7--------------------------|
|-x-x------5--7--x-------5h7-|------------5--7-x-x----------------|
|----------------------------|------------------------------------|
[ Tab from: http://www.guitartabs.cc/tabs/s/slash_and_kravitz/always_on_the_run_tab_ver_3.html ]
Solo (Slash)
(2:00)
  A7
|------------------------------|-----------------------------------|
|------------------------------|---------------------------5----5/-|
|-----------------------5p0--7-|-7(9)--5---7p5--5------5-5---/9----|
|--------------5p0-7p5---------|---------------7---5h7-------------|
|---4p0-5p0-7------------------|-----------------------------------|
|-5----------------------------|-----------------------------------|

  E7#9
|--------12-------------------------------------|
|-15(17)----12--14(15)12-------12---------------|
|------------------------15-14----14(15)(14)p12-|
|-----------------------------------------------|
|-----------------------------------------------|
|-----------------------------------------------|

|---------------------------------------------------------------------|
|--------12--15p12---12-------12--------------------------------------|
|-14(16)-----------14---14(15)---14(15)(14)p12-----14----12(14(12)----|
|-----------------------------------------------14----14-----------14-|
|---------------------------------------------------------------------|
|---------------------------------------------------------------------|

  B7
|------------------------7-----------------------7--------|
|-10(12)-10(12)---10(12)---10p7---------------------10s12-|
|-------------------------------9(11)(9)p7-9p7h8----------|
|---------------------------------------------------------|
|---------------------------------------------------------|
|---------------------------------------------------------|

|-0--12(14)-12-11-12-11-12-12(14)--------12----|
|-------------------------------------12----12-|
|----------------------------------------------|
|----------------------------------------------|
|----------------------------------------------|
|----------------------------------------------|

  E7#9
|-15--(16)p12---------15---(16)--------15---(16)p12--------15--------12-|
|--------------15p12-------------15-12---------------15p12---------12---|
|-----------------------------------------------------------------------|
|-----------------------------------------------------------------------|
|-----------------------------------------------------------------------|
|-----------------------------------------------------------------------|

|----------------------------------------12---------------------------------------------|
|--14(15)(14)p12---12h15p12----12----------15p12----------------------------------------|
|----------------15---------15----14(16)--------14(16)(14)p12--12-----------------------|
|------------------------------------------------------------14--14p12------------------|
|----------------------------------------------------------------------12(14)12-12-10---|
|------------------------------------------------------------------------------------12-|

  E7#9
|-----------|
|-----------|
|-------12/-|
|-------12/-|
|-7---------|
|----11-----|
Comments