Slash - Youre A Lie Chords & Tabs

 

Slash Chords & Tabs

Version: 1 Type: Tab 0 ratings
1 star 2 stars 3 stars 4 stars 5 stars
comments

Youre A Lie Tab

   
        SLASH FEAT. MYLES KENNEDY AND THE CONSPIRATORS - You're A Lie (Apocalyptic 
Love) (Tabbed By Amnesic Aphasia)

        
        Tuning: Eb


        Slash's Part (Unfortunately W/O Complete Solo)



        Intro (Version 1)                 Intro (Version 2)

        |-----------------|               |-----------------|
        |-----------------|               |-----------------|
        |---6-------------|               |-----------------|
        |-4-6-7-2-5-4-2-4-|               |---6-------------|
        |-4-4-7-2-5-4-2-4-|               |-4-4-7-2-5-5-2-4-|           
        |-2---5-0-3-2-0-2-|               |-2---5-0-3-2-0-2-|


        |-------------|-------------|-------------|---------|
        |-------------|-------------|-------------|---------|
        |-------------|-------------|-------------|-(4)-----|
        |-6/9---------|-6/9---------|-6/9---------|--4--(4)-|
        |-4/7-2-4-3-2-|-4/7-2-4-3-2-|-4/7-2-4-3-2-|--2---4--|
        |-----0-2-1-0-|-----0-2-1-0-|-----0-2-1-0-|------2--|


        |-------------|-------------|-------------|---------|
        |-------------|-------------|-------------|---------|
        |-------------|-------------|-------------|-(4)-----|
        |-6/9---------|-6/9---------|-6/9---------|--4--(4)-|
        |-4/7-2-4-3-2-|-4/7-2-4-3-2-|-4/7-2-4-3-2-|--2---4--|
        |-----0-2-1-0-|-----0-2-1-0-|-----0-2-1-0-|------2--|


        |--------|--------|--------|---------|
        |--------|--------|--------|---------|
        |-6/9-9~-|-6/9-9~-|-6/9-9~-|-(4)-----|
        |-6/9----|-6/9----|-6/9----|--4--(4)-|
        |--------|--------|--------|--2---4--|
        |--------|--------|--------|------2--|


        |---|---|---|---|
        |-5-|-4-|-4-|-2-|
        |-6-|-5-|-4-|-3-|
        |-6-|-6-|-4-|-4-|
        |-4-|-3-|-2-|-4-|
        |---|---|---|---|


        |---|---|---|---|
        |-5-|-4-|-4-|-2-|
        |-6-|-5-|-4-|-3-|
        |-6-|-6-|-4-|-4-|
        |-4-|-3-|-2-|-4-|
        |---|---|---|---|


        |---------|---------|------|
        |-77-55---|-77-55---|-77-5-|
        |-------6-|-------6-|------|
        |---------|---------|------|
        |---------|---------|------|
        |---------|---------|------|


        |---------|---------|------|
        |-55-44---|-55-44---|-55-4-|
        |-------5-|-------5-|------|
        |---------|---------|------|
        |---------|---------|------|
        |---------|---------|------|


        |---------|---------|------|
        |-77-55---|-77-55---|-77-5-|
        |-------6-|-------6-|------|
        |---------|---------|------|
        |---------|---------|------|
        |---------|---------|------|


        |---------|---------|------|
        |-99-77---|-99-77---|-99-7-|
        |-------6-|-------6-|------|
        |---------|---------|------|
        |---------|---------|------|
        |---------|---------|------|


        |---------|---------|------|
        |-77-55---|-77-55---|-77-5-|
        |-------6-|-------6-|------|
        |---------|---------|------|
        |---------|---------|------|
        |---------|---------|------|


        |---------|---------|------|
        |-55-44---|-55-44---|-55-4-|
        |-------5-|-------5-|------|
        |---------|---------|------|
        |---------|---------|------|
        |---------|---------|------|


        |---------|---------|------|
        |-77-55---|-77-55---|-77-5-|
        |-------6-|-------6-|------|
        |---------|---------|------|
        |---------|---------|------|
        |---------|---------|------|


        |---------|---------|------|
        |-99-77---|-99-77---|-99-7-|
        |-------6-|-------6-|------|
        |---------|---------|------|
        |---------|---------|------|
        |---------|---------|------|


        |-------------|------------|---------|
        |-1212-1010---|1212-1010---|-1212-10-|
        |-----------9-|----------9-|---------|
        |-------------|------------|---------|
        |-------------|------------|---------|
        |-------------|------------|---------|


        |-------------|------------|---------|
        |-1212-1010---|1212-1010---|-1212-10-|
        |-----------9-|----------9-|---------|
        |-------------|------------|---------|
        |-------------|------------|---------|
        |-------------|------------|---------|


        |--------------|--------------|---------|----------------|
        |-1212-1111----|-1212-1111----|-1212-11-|-13-------------|
        |-----------11-|-----------11-|---------|----13----------|
        |--------------|--------------|---------|-------13-11-10-|
        |--------------|--------------|---------|----------------|
        |--------------|--------------|---------|----------------|


        |-------------|-------------|-------------|---------|
        |-------------|-------------|-------------|---------|
        |-------------|-------------|-------------|-(4)-----|
        |-6/9---------|-6/9---------|-6/9---------|--4--(4)-|
        |-4/7-2-4-3-2-|-4/7-2-4-3-2-|-4/7-2-4-3-2-|--2---4--|
        |-----0-2-1-0-|-----0-2-1-0-|-----0-2-1-0-|------2--|


        |-------------|-------------|-------------|---------|
        |-------------|-------------|-------------|---------|
        |-------------|-------------|-------------|-(4)-----|
        |-6/9---------|-6/9---------|-6/9---------|--4--(4)-|
        |-4/7-2-4-3-2-|-4/7-2-4-3-2-|-4/7-2-4-3-2-|--2---4--|
        |-----0-2-1-0-|-----0-2-1-0-|-----0-2-1-0-|------2--|


        |---|---|---|---|
        |-5-|-4-|-4-|-2-|
        |-6-|-5-|-4-|-3-|
        |-6-|-6-|-4-|-4-|
        |-4-|-3-|-2-|-4-|
        |---|---|---|---|


        |---------|---------|------|
        |-77-55---|-77-55---|-77-5-|
        |-------6-|-------6-|------|
        |---------|---------|------|
        |---------|---------|------|
        |---------|---------|------|


        |---------|---------|------|
        |-55-44---|-55-44---|-55-4-|
        |-------5-|-------5-|------|
        |---------|---------|------|
        |---------|---------|------|
        |---------|---------|------|


        |---------|---------|------|
        |-77-55---|-77-55---|-77-5-|
        |-------6-|-------6-|------|
        |---------|---------|------|
        |---------|---------|------|
        |---------|---------|------|

[ Tab from: http://www.guitartabs.cc/tabs/s/slash/youre_a_lie_tab.html ]
        |---------|---------|------|
        |-99-77---|-99-77---|-99-7-|
        |-------6-|-------6-|------|
        |---------|---------|------|
        |---------|---------|------|
        |---------|---------|------|


        |-------------|------------|---------|
        |-1212-1010---|1212-1010---|-1212-10-|
        |-----------9-|----------9-|---------|
        |-------------|------------|---------|
        |-------------|------------|---------|
        |-------------|------------|---------|


        |-------------|------------|---------|
        |-1212-1010---|1212-1010---|-1212-10-|
        |-----------9-|----------9-|---------|
        |-------------|------------|---------|
        |-------------|------------|---------|
        |-------------|------------|---------|


        |--------------|--------------|---------|----------------|
        |-1212-1111----|-1212-1111----|-1212-11-|-13-------------|
        |-----------11-|-----------11-|---------|----13----------|
        |--------------|--------------|---------|-------13-11-10-|
        |--------------|--------------|---------|----------------|
        |--------------|--------------|---------|----------------|


        |-------------|-------------|-------------|---------|
        |-------------|-------------|-------------|---------|
        |-------------|-------------|-------------|-(4)-----|
        |-6/9---------|-6/9---------|-6/9---------|--4--(4)-|
        |-4/7-2-4-3-2-|-4/7-2-4-3-2-|-4/7-2-4-3-2-|--2---4--|
        |-----0-2-1-0-|-----0-2-1-0-|-----0-2-1-0-|------2--|


        |-------------|-------------|-------------|---------|
        |-------------|-------------|-------------|---------|
        |-------------|-------------|-------------|-(4)-----|
        |-6/9---------|-6/9---------|-6/9---------|--4--(4)-|
        |-4/7-2-4-3-2-|-4/7-2-4-3-2-|-4/7-2-4-3-2-|--2---4--|
        |-----0-2-1-0-|-----0-2-1-0-|-----0-2-1-0-|------2--|


        |-----------------|---------------|-------------|-----------0------|
        |-----------------|---------------|-------------|-------------0----|
        |-----------------|---------------|-------------|-3b4r3-0-------3~-|
        |-7-7-7-7-7-7-7-7-|-7-7-7-7-7-6-4-|-4-4-4-4-4-4-|---------2--------|
        |-7-7-7-7-7-7-7-7-|-7-7-7-7-7-6-4-|-4-4-4-4-4-4-|------------------|
        |-5-5-5-5-5-5-5-5-|-5-5-5-5-5-4-2-|-2-2-2-2-2-2-|------------------|


        |-----------------|---------------|-----------------|-----------|
        |-----------------|---------------|-----------------|-----------|
        |-----------------|---------------|-----------------|-----------|
        |-7-7-7-7-7-7-7-7-|-7-7-7-7-7-6-4-|-4-4-4-4-4-4-4-4-|-6-6-6-6-6-|
        |-7-7-7-7-7-7-7-7-|-7-7-7-7-7-6-4-|-4-4-4-4-4-4-4-4-|-6-6-6-6-6-|
        |-5-5-5-5-5-5-5-5-|-5-5-5-5-5-4-2-|-2-2-2-2-2-2-2-2-|-4-4-4-4-4-|


        |------------|---------------11~-|---11b12-14r12-----|
        |-9h12-12b14-|-12b14r12p9--------|-9-------------11~-|
        |------------|------------11-----|-------------------|
        |------------|-------------------|-------------------|
        |------------|-------------------|-------------------|
        |------------|-------------------|-------------------|


        |------9----------|...
        |-9h12---12-12b14-|...
        |-----------------|...
        |-----------------|...
        |-----------------|...
        |-----------------|...


        |-------------|-------------|-------------|---------|
        |-------------|-------------|-------------|---------|
        |-------------|-------------|-------------|-(4)-----|
        |-6/9---------|-6/9---------|-6/9---------|--4--(4)-|
        |-4/7-2-4-3-2-|-4/7-2-4-3-2-|-4/7-2-4-3-2-|--2---4--|
        |-----0-2-1-0-|-----0-2-1-0-|-----0-2-1-0-|------2--|


        |-------------|-------------|-------------|---------|
        |-------------|-------------|-------------|---------|
        |-------------|-------------|-------------|-(4)-----|
        |-6/9---------|-6/9---------|-6/9---------|--4--(4)-|
        |-4/7-2-4-3-2-|-4/7-2-4-3-2-|-4/7-2-4-3-2-|--2---4--|
        |-----0-2-1-0-|-----0-2-1-0-|-----0-2-1-0-|------2--|


        |-------------|-------------|-------------|---------|
        |-------------|-------------|-------------|---------|
        |-------------|-------------|-------------|-(4)-----|
        |-6/9---------|-6/9---------|-6/9---------|--4--(4)-|
        |-4/7-2-4-3-2-|-4/7-2-4-3-2-|-4/7-2-4-3-2-|--2---4--|
        |-----0-2-1-0-|-----0-2-1-0-|-----0-2-1-0-|------2--|


        |-------------|-------------|-------------|---------|
        |-------------|-------------|-------------|---------|
        |-------------|-------------|-------------|-(4)-----|
        |-6/9---------|-6/9---------|-6/9---------|--4--(4)-|
        |-4/7-2-4-3-2-|-4/7-2-4-3-2-|-4/7-2-4-3-2-|--2---4--|
        |-----0-2-1-0-|-----0-2-1-0-|-----0-2-1-0-|------2--|


        |---------|---------|------|
        |-77-55---|-77-55---|-77-5-|
        |-------6-|-------6-|------|
        |---------|---------|------|
        |---------|---------|------|
        |---------|---------|------|


        |---------|---------|------|
        |-55-44---|-55-44---|-55-4-|
        |-------5-|-------5-|------|
        |---------|---------|------|
        |---------|---------|------|
        |---------|---------|------|


        |---------|---------|------|
        |-77-55---|-77-55---|-77-5-|
        |-------6-|-------6-|------|
        |---------|---------|------|
        |---------|---------|------|
        |---------|---------|------|


        |---------|---------|------|
        |-99-77---|-99-77---|-99-7-|
        |-------6-|-------6-|------|
        |---------|---------|------|
        |---------|---------|------|
        |---------|---------|------|


        |---------|---------|------|
        |-77-55---|-77-55---|-77-5-|
        |-------6-|-------6-|------|
        |---------|---------|------|
        |---------|---------|------|
        |---------|---------|------|


        |---------|---------|------|
        |-55-44---|-55-44---|-55-4-|
        |-------5-|-------5-|------|
        |---------|---------|------|
        |---------|---------|------|
        |---------|---------|------|


        |---------|---------|------|
        |-77-55---|-77-55---|-77-5-|
        |-------6-|-------6-|------|
        |---------|---------|------|
        |---------|---------|------|
        |---------|---------|------|


        |---------|---------|------|---|
        |-99-77---|-99-77---|-99-7-|---|
        |-------6-|-------6-|------|-6-|
        |---------|---------|------|-6-|
        |---------|---------|------|-4-|
        |---------|---------|------|---|

Official Website: http://www.http://slashonline.com/
Comments