Slapstick - Almost Punk Enough Chords & Tabs

 

Almost Punk Enough Chords & Tabs

Slapstick Chords & Tabs

Version: 2 Type: Bass Tab 0 ratings
1 star 2 stars 3 stars 4 stars 5 stars
comments

Almost Punk Enough Bass Tab

Song: Almost Punk Enough
Band: Slapstick
Album: Lookit! and Slapstick


G:----------|---------------------------------------------''|
D:----------'|------4--------------------------------------|
A:--5------'|---5----5--------2---------4----------2----|
E:------5---|--------------3---3-----5----5-----3---3--'|
[ Tab from: http://www.guitartabs.cc/tabs/s/slapstick/almost_punk_enough_btab_ver_2.html ]
1st ending 2nd Ending
G:-----------------------------|---------------|-------------|
D:------4----------------------|-55-4-2-4---|--55-4-2---|
A:---5----5-----2-------4----|---------------|----------4-|
E:------------3---3---5---5---|--------------|-------------|

Chorus
G:-------------------------------------------------------|
D:-------------------------------------------------------|
A:--55555555--------------55555555---------------|
E:---------------33333333--------------55555555--|

"Good enough for..."
G:------------------------------------------------------|
D:------------------------------------------------------|
A:--55555555----------------------------------------|
E:---------------33333333--5555555--33333333-|

I figured out this song. It's pretty easy, as are most
Slapstick songs, and it sounds pretty cool.

Morton
Comments