Slapshock - Windshield Chords & Tabs

 

Windshield Chords & Tabs

Slapshock Chords & Tabs

Version: 1 Type: Tab 0 ratings
1 star 2 stars 3 stars 4 stars 5 stars
comments

Windshield Tab

   
SONG: Windshield
BAND: Slapshock
TABBED BY: stereo_pump*
Drop D tuning (D A F C G D )


~~~~~~~~~~~~~~~~~~~~~~~~~~~~~~~WARNING~~~~~~~~~~~~~~~~~~~~~~~~~~~~~~~~~~~~

The owner of the copyright has authorized the use of this tab for
the purpose of private home viewing or study. any copying/reproduction 
of any of the material without the hand-written consent of MARKWELL
DUNGOG is an infringement of copyright and may result in severe 
athlete's foot, underarm odor or bad breath.

~~~~~~~~~~~~~~~~~~~~~~~~~~~~~~~~~~~~~~~~~~~~~~~~~~~~~~~~~~~~~~~~~~~~~~~~~~


Legend:
  h = hammer on
  b = break
  \ = slide backward
  > = hold



INtro: (bass thing)

D--------------------------------------------
A--------------------------------------------
F--------------------------------------------
C--------------------------------------------
G--------------------------------------------
D--0-5-5h7---8-5-5-7-0---5-5h7---9-5-5-8-5---



FIg. 1 (where he starts rapping)

D----------------------------------------------------------
A----------------------------------------------------------
F----------------------------------------------------------
C----9-9h11---12-9-9-11-----9-9h11---13-9-9-12-9-----------
G--9--------------------9----------------------------------
D----------------------------------------------------------



Fig 1.1
"I am the voice..."

D--------------------------------------------
A--------------------------------------------
F--------------------------------------------
C--------------------------------------------
G--5-5-7-7-7-5-7-7-5-7-5---------------------
D--5-5-7-7-7-5-7-7-5-7-5---------------------



Chorus:

D------------------------------------------------------------
A------------------------------------------------------------
F------------------------------------------------------------
C------7-7h9-9-9-9-9-7h9-11-11-11-11-7-7-7-7-7-7-7-----------
G--7---------------------11-11-11-11-7-7-7-7-7-7-7-----------
D--7---------------------9--9--9--9--5-5-5-5-5-5-5-----------



Back from intro to chorus




Fig 2 (after-chorus riff)

D--------------------------------------------
A--------------------------------------------
F--------------------------------------------
C--------------------------------------------
G--7-5-5-5--7-5-5--7-5-5-7-5-5---------------
D--7-5-5-5--7-5-5--7-5-5-7-5-5---------------



FIg 2.1

D--------------------------------------------
A--------------------------------------------
F--------------------------------------------
C--10-9--------------9-7---------------------
G--8--7--------------7-5---------------------
D--8--7--------------7-5---------------------
       b                b


Fig 2.2
[ Tab from: http://www.guitartabs.cc/tabs/s/slapshock/windshield_tab.html ]
D----------------------------------------------------------
A----------------------------------------------------------
F----------------------------------------------------------
C--10-9-----9-9-9-9-9-9-----9-7------7-7-7-7-7-7-----------
G--8--7-----7-7-7-7-7-7-----7-5------5-5-5-5-5-5-----------
D--8--7-----7-7-7-7-7-7-----7-5------5-5-5-5-5-5-----------
       b                       b


Back-up for Fig 2.2

D------------------------------------------------------
A------------------------------------------------------
F--8h9-9h11p9-9-11-9-9-9-9\7-7h9p7-7-9-7--7-7----------
C------------------------------------------------------
G------------------------------------------------------
D------------------------------------------------------



Fig 2.3

D--------------------------------------------
A--------------------------------------------
F--------------------------------------------
C--9---9---9-9-9-9---7---7---7-7-7-7---------
G--7---7---7-7-7-7---5---5---5-5-5-5---------
D--7---7---7-7-7-7---5---5---5-5-5-5---------
    >   >             >   >


Fig 2.4
    
D----------------------------------------------------------------------
A----------------------------------------------------------------------
F----------------------------------------------------------------------
C----11-11-9-10-11---11-11-9-10-11---11-11-9-10-11-9-9---9-11----------
G--9---------------------------------------------------9------9--------
D----------------------------------------------------------------------

D-------------------------------------------------------------------------
A-------------------------------------------------------------------------
F-------------------------------------------------------------------------
C--11-11-9-10-11-----11-11-9-10-11---11-11-9-10-11-11-9-10-11-------------
G----------------9--------------------------------------------9-----------
D-------------------------------------------------------------------------

D--------------------------------------------------------------------
A--------------------------------------------------------------------
F--------------------------------------------------------------------
C--11-11-9-10-11---11-9-10-11----11----11-11-11----------------------
G--------------------------------------------------------------------
D--------------------------------------------------------------------

Fig 2.4 ends with:

D--------------------------------------------
A--------------------------------------------
F--------------------------------------------
C--11\---------------------------------------
G--9-\---------------------------------------
D--9-\---------------------------------------


repeat fig 1

repeat chorus

Do Fig 2

Song ends with a sequence of breaks



Do e-mail me for comments or suggestions about this tab at:
                    stereo_pump@swirve.com
Comments