Slapshock - Wake Up Chords & Tabs

 

Wake Up Chords & Tabs

Slapshock Chords & Tabs

Version: 4 Type: Tab 0 ratings
1 star 2 stars 3 stars 4 stars 5 stars
comments

Wake Up Tab

hey mga dude eto yung bago kong gawa,bagong version ng wake up ng slap, sana
magustuhan nyo and tunning nito dating tunning DROP D kaya sana magustuhan nyo.

TUNNINIG
DADGBE

ALBUM:Project 11-41
Song:Wake Up
TABBED BY:Mathew Alibnagbnag a.k.a RoCk3r_GuItArIsT

Intro 4x
|---------------------------------------------|
|---------------------------------------------|
|---------------------------------------------|
|---------------------------------------------|
|--5-5-5-5-5-5---3---6--5---------------------|
|---------------------------------------------|


This part is palm mute
|---------------------------------------------|
|---------------------------------------------|
|---------------------------------------------|
|0-0-0-0-0-0-0-1-0---0-0-0-0-0-0-1-0----------|
|0-0-0-0-0-0-0-1-0---0-0-0-0-0-0-1-0----------|
|0-0-0-0-0-0-0-1-0---0-0-0-0-0-0-1-0----------|

|--------------------------------------------------------------------|
|--------------------------------------------------------------------|
|--------------------------------------------------------------------|
|0-0-0-0-0-0-0-1-0---0-0-0-0-0-0-1-0---3-3-3--5-5-5------------------|
|0-0-0-0-0-0-0-1-0---0-0-0-0-0-0-1-0---1-1-1--3-3-3------------------|
|0-0-0-0-0-0-0-1-0---0-0-0-0-0-0-1-0---------------------------------|


Verse
|------------------------------------------------------------|
|------------------------------------------------------------|
|------------------------------------------------------------|
|-----------------------------5--0--5-6----------------------|
|-0--5h6-6-0--5h6-6-0--5h6-6---------------------------------|
|-0--------0--------0----------------------------------------|


Pre-chorus
|---------------|--------------|-------------------------|------------------------------|
|---------------|--------------|-------------------------|------------------------------|
|---------------|--------------|-------------------------|------------------------------|
|-7-7-7/-5/8--7-|-7-7-7/-5/8--5|-7-7-7/-5----9-9-9--5---6|or-7-7-7/-5---6--5------------|
|-5-5-5/-3/6--5-|-5-5-5/-3/6--7|-5-5-5/-3----7-7-7--3---8|---5-5-5/-3---8--3------------|
|---------------|--------------|-------------------------|------------------------------|



Chorus
|------------------------------------------------------------------------------------------|
|------------------------------------------------------------------------------------------|
|------------------------------------------------------------------------------------------|
|-----------7-7-7-8-7------------7-7-7-8-7------------7-7-7--8-5----3-3-3---5-5-5----------|
|-0-0-0-0-0-5-5-5-6-5-0-0-0-0-0--5-5-5-6-5--0-0-0-0-0-5-5-5--6-7----1-1-1---3-3-3----------|
|-0-0-0-0-0-----------0-0-0-0-0-------------0-0-0-0-0--------------------------------------|

[ Tab from: http://www.guitartabs.cc/tabs/s/slapshock/wake_up_tab_ver_4.html ]
Bridge
|---------------------------------------------|
|---------------------------------------------|
|---------------------------------------------|
|-7~--7-8-8-----------------------------------|
|-5~--5-6-6-----------------------------------|
|---------------------------------------------|

Solo
|------------------------------------------------|-----------------------|---------------|
|------------------------------------------------|-----------------------|---------------|
|------------------------------------------------|-----------------------|-repeat--------|
|-------7-7-7-------7-7-7--------7-7-7------7-7-7|-------8-8-8------8-8-8|---2x----------|
|-5-5-5-------5-5-5--------5-5-5-------5-5-5-----|-6-6-6-------6-6-6-----|-this part-----|
|------------------------------------------------|-----------------------|---------------|


|------------------------------------------|
|------------------------------------------|
|------------------------------------------|
|-7-7--7-7---7-7--7-7-7-7------------------|
|-5-5--7-7---5-5--7-7-7-7------------------|
|------7-7--------7-7-7-7------------------|

|-------------------------|
|-------------------------|
|-------------------------| 
|-7-7-7-7-7-7-7-----------|2X
|-5-5-5-5-5-5-5-----------|
|-------------------------|

then
|--------------|-------|----------------------------|
|--------------|-------|----------------------------|
|--------------|-repeat|----------------------------|
|-8-8-8-8-8-8-8|---2x--|----------------------------|
|-6-6-6-6-6-6-6|-------|-0-0-0-0--------------------|
|--------------|-------|-0-0-0-0--------------------|

Chorus
|-----------------------------------------------------------------------------------------|
|-----------------------------------------------------------------------------------------|
|-----------------------------------------------------------------------------------------|
|-----------7-7-7-8-7------------7-7-7-8-7------------7-7-7--8-5----3-3-3---5-5-5---------|
|-0-0-0-0-0-5-5-5-6-5-0-0-0-0-0--5-5-5-6-5--0-0-0-0-0-5-5-5--6-7----1-1-1---3-3-3---------|
|-0-0-0-0-0-----------0-0-0-0-0-------------0-0-0-0-0-------------------------------------|



|---------------------------|
|---------------------------|
|---------------------------|
|-7-7-7-7-7--5--8-7---------| 2X
|-5-5-5-5-5--3--6-5---------| 
|---------------------------|

|---------------------------------------------|
|---------------------------------------------|
|---------------------------------------------|
|-8-8-8-8-8--6--9-6---------------------------|
|-6-6-6-6-6--4--7-8---------------------------|
|---------------------------------------------|


|-----------------------------------|
|-----------------------------------|
|-----------------------------------|
|-8----8----8----8/-----------------|
|-6----6----6----6/-----------------|
|-----------------------------------|


if u hve any sgstion jst e-mail me rock3r_guitarist@yahoo.com
o kya col nyo nlng ako 9830838,09193774244
pasensya na kyo kng medyo magulo kyo nlng ang bahala
kc kya mdyo magulo tinamad na ko eh cge,e-mail nyo nlng ako.
Comments