Slapshock - Wake Up Chords & Tabs

 

Wake Up Chords & Tabs

Slapshock Chords & Tabs

Version: 2 Type: Tab 0 ratings
1 star 2 stars 3 stars 4 stars 5 stars
comments

Wake Up Tab

   
Song: Wake Up
Band: Slapshock

Standard Tuning(EADGBE)

Legend:

b= break
/= slide (forward)
)= let ring
\= slide (backwards)

Intro: (with distortion)

E-----------------------------------------------------------
B-----------------------------------------------------------
G--------------------------------------4-4-4-4-4-2-4-5-4----
D-4-4-4-4-4-2-4-5-4--repeat 3x before--4-4-4----------------
A-----------------------------------------------------------
E-----------------------------------------------------------

Intro/Chorus Fig. 1

E----------------------------------------------------------------------
B----------------------------------------------------------------------
G-4b-4b-4b-4b-4b-2-4-5-4--repeat 3x and then--4b-4b-4b-4b-66667777-----
D-4b-4b-4b-4b-4b-2-4-5-4----------------------4b-4b-4b-4b-66667777-----
A----------------------------------------------------------------------
E----------------------------------------------------------------------

Repeat Fig. 1 2x

Stanza: Fig. 2

E-----------------------------2b-----4-----
B--3b---3-3-3b---3-4-3b---3-4------5-------
G-----4--------4--------4--------6---------   4x
D------------------------------------------
A------------------------------------------
E------------------------------------------

Next..
Fig. 3

E-------------------------------------------
B-------------------------------------------
G--4b-4b44/5-4b-4b44/5-4b-4b44/5-6b--7-8----
D--4b-4b44/5-4b-4b44/5-4b-4b44/5-6b--7-8----
A--2b-2b22/3-2b-2b22/3-2b-2b22/3-4b--5-6----
E-------------------------------------------

Repeat Fig. 3 4x,but on the 4th time wnd with chord 6b-6b-4b.

Go back to Fig.1,2,3 and 1 again. After which, this tab will follow:

E---------------------------------
B---------------------------------
G--4)--5b5b----4b4b----4424b------   2x
D--4)--5b5b----4b4b----4424b------
A--2)--3b3b----2b2b----2202b------
E---------------------------------

And then this tab: Fig. 4
*you can palm mute this one.

E--------------------------------------------------------------------
B--------------------------------------------------------------------
G--------------------------------------------------------------------
D-22224444222244444422444422224444-33335555333355555533555533335555--
A--------------------------------------------------------------------
E--------------------------------------------------------------------

*NOTE: This riff is played simultaneously. It is important to listen to 
                         the track for the timing.

Fig 4.1 *These two are played together. Once Fig.4 starts, Fig 4.1 also starts.
[ Tab from: http://www.guitartabs.cc/tabs/s/slapshock/wake_up_tab_ver_2.html ]
E-------------------------------------------------------
B-------------------------------------------------------
G-------------------------------------------------------
D--4b4b-4444b----44b4444b--55b-5555----55b5555b---------  3x
A--4b4b-4444b----44b4444b--55b-5555----55b5555b---------
E--2b2b-2222b----22b2222b--33b-3333----33b3333b---------

This next tab is kinda' related ti Figures 4 and 4.1. It follows after them.
It may be possible that this was played using two guitars. But anyway,
I think a single guitar could do this.

Fig 4.2

E---------------------------------------------------------------------
B---------------------------------------------------------------------
G-------4)-------4)----4)-------4)------5)-------5)----5)-------5)----  2x
D--4b4b-4)-4444b-4)--4b4)-4444b-4)-5b5b-5)-5555b-5)--5b5)-5555b-5)----
A--4b4b-2)-4444b-2)--4b2)-4444b-2)-5b5b-3)-5555b-3)--5b3)-5555b-3)----
E--2b2b----2222b-----2b---2222b----3b3b----3333b-----3b---3333b-------

The next one is where he shouts...The "let ring" sign here occurs only 
      in a very short period of time. So don't be bothered 
                 by it being there, alright?
E------------------------------------------------------------
B------------------------------------------------------------
G--4)---4)---4)--4)---4)---4)--5)---5)---5)--5)---5)---------
D--4)-444)-444)--4)-444)-444)--5)-555)-555)--5)-555)-5-------
A--2)-222)-222)--2)-222)-222)--3)-333)-333)--3)-333)-300-----
E-----22---22-------22---22-------33---33-------33---300-----

Go back to Fig. 1 and after that, the song ends with this tab:

E------------------------------------------------------------------------
B------------------------------------------------------------------------
G-4b-4b-4b-4b-4b-2-4-5-4--4b-4b-4b-4b-4b-2-4-5-4--5b-5b-5b-5b-5b-3-5-6-5-
D-4b-4b-4b-4b-4b-2-4-5-4--4b-4b-4b-4b-4b-2-4-5-4--5b-5b-5b-5b-5b-3-5-6-5-
A------------------------------------------------------------------------
E------------------------------------------------------------------------

E------------------------------------------------------------------------
B------------------------------------------------------------------------
G-5b-5b-5b-5b-5b-3-5-6-5--4b-4b-4b-4b-4b-2-4-5-4--4b-4b-4b-4b-4b-2-4-5-4-
D-5b-5b-5b-5b-5b-3-5-6-5--4b-4b-4b-4b-4b-2-4-5-4--4b-4b-4b-4b-4b-2-4-5-4-
A------------------------------------------------------------------------
E------------------------------------------------------------------------

E-----------------------------------------
B-----------------------------------------
G-5b-5b-5b-5b-5b-3-5-6-5------------------
D-5b-5b-5b-5b-5b-3-5-6-5--5b-5b-5b-5\-----
A-------------------------5b-5b-5b-5\-----
E-------------------------3b-3b-3b-3\-----

Well, that was it! If you have any comments, or suggestions, e-mail me
                    at stereo_pump@swirve.com

Sorry for the wrong spellings (if there are). I had to do this quickly!!
Comments