Slapshock - Wake Up Chords & Tabs

 

Wake Up Chords & Tabs

Slapshock Chords & Tabs

Version: 1 Type: Tab 0 ratings
1 star 2 stars 3 stars 4 stars 5 stars
comments

Wake Up Tab

Dis file is dedicated to my bros, my frendz, and to my family and to the 
Roque Clan especially to slapshock, greyhoundz, cheese, zooom..........


Song: Wake Up
Artist: Slapshock
Album: Project 11-41
Transcribed by: Gary Roque + KiDdie MeAlz

Tuning: Drop D

Just figure out the strummuing on the chorus, bridge and in the outro just 
listen to the song.......... this tab is so easy so.....ENJOY!!!!!!!!

Intro:
|------------------------------------|
|------------------------------------|
|------------------------------------|
|------------------------------------|
|----7^-7^-7^-7^-7^-7^-5^-8^-7^------|
|------------------------------------|

|-------------------------------|
|-------------------------------|
|-------------------------------|
|--2-2-2-2-2-2-0-3-2------------|
|--2-2-2-2-2-2-0-3-2------------|
|--2-2-2-2-2-2-0-3-2------------|

Verse:
|---------------------------------|
|---------------------2-2-3-------|
|---2-2-3-2-2-3-2-2-3-------------|
|---------------------------------|
|---------------------------------|
|---------------------------------|

Pre Chorus:
|---------------------------------|
|---------------------------------|
|---------------------------------|
|--2-2-3-2-2-3-2-2-3--7-7-8-------|
|--2-2-3-2-2-3-2-2-3--7-7-8-------|
|--2-2-3-2-2-3-2-2-3--7-7-8-------|
[ Tab from: http://www.guitartabs.cc/tabs/s/slapshock/wake_up_tab.html ]
Chorus:
|---------------------------------|
|---------------------------------| 
|---------------------------------|
|--2-0-3-2----------------7-8-----|
|--2-0-3-2----------------7-8-----|
|--2-0-3-2----------------7-8-----|

repeat the verse, pre chorus and chorus

Bridge:
|---------------------------------|
|---------------------------------|
|---------------------------------|
|--2~--3-3--2-2--2-2-2------------|
|--2~--3-3--2-2--2-2-2------------|
|--2~--3-3--2-2--2-2-2------------|

Guitar 1:
|---------------------------------|
|---------------------------------|
|---------------------------------|
|--2-3----------------------------|
|--2-3----------------------------|
|--2-3----------------------------|

Guitar 2
|--------------------------------|
|--------------------------------|
|--------------------------------|
|----9---10----------------------|
|--7---8-------------------------|
|--------------------------------|

|---------------------------------|
|---------------------------------|
|---------------------------------|
|--2------3-----------------------|
|--2------3-----------------------|
|--2------3-----------------------|

repeat chorus

Outro:
|---------------------------------|
|---------------------------------|
|---------------------------------|
|--2-0-3-2---3-1-4-3--------------|
|--2-0-3-2---3-1-4-3--------------|
|--2-0-3-2---3-1-4-3--------------|

|---------------------------------|
|---------------------------------|
|---------------------------------|
|--2-2-2/-0-----------------------|
|--2-2-2/-0-----------------------|
|--2-2-2/-0-----------------------|


Comments