Slapshock - Sunday Shivers Chords & Tabs

 

Sunday Shivers Chords & Tabs

Slapshock Chords & Tabs

Version: 2 Type: Tab 0 ratings
1 star 2 stars 3 stars 4 stars 5 stars
comments

Sunday Shivers Tab

song:sunday shivers
artist:slapshock
album:11-41
tabbed by:leander m.
tune guitar drop-d
info:any comment,sugestion e-mail me at leander_85@yahoo.com 
     or text/call 09193216020
intro:
E|--------------------------------------------------|
B|--------------------------------------------------|
G|--------------------------------------------------|
D|--0-x-0-x-0--1-0--0-1--0-x-0-x-0-1-0-x-0-1-0-3-3--|
A|--0-x-0-x-0--1-0--0-1--0-x-0-x-0-1-0-x-0-1-0-3-3--|
D|--------------------------------------------------|

intro part II(this riff is used in chorus)
                    1st part                        2nd part       3rd part
E|------------------------------------------||----------------||---------------|
B|------------------------------------------||----(9)-(9)-(9)-||--(9)-(9)-(9)--|
G|------------------------------------------||-(9)------------||---------------|
D|--0x-0x-0--1-0-0-1--0x-0x-0-1-0-0-1-0-3-3-||-(9)------------||---------------|
A|--0x-0x-0--1-0-0-1--0x-0x-0-1-0-0-1-0-3-3-||----------------||---------------|
D|--0x-0x-0--1-0-0-1--0x-0x-0-1-0-0-1-0-3-3-||----------------||---------------|
[ Tab from: http://www.guitartabs.cc/tabs/s/slapshock/sunday_shivers_tab_ver_2.html ]
guitar I(strum,clean sound)
E|----------------------------|
B|----------------------------|
G|----------------------------|
D|--7-7--7-7-7-7-7-8-8--------|
A|--5-5--5-5-5-5-5-6-6-6-8-6--|
D|--0-0--0-0-0-0-0-0-0--------|
guitar II
E|----------------------|      |-----14----16----14----18-16--|
B|----6---8---6---10-8--|      |--15----15----15----15--------|
G|--7---7---7---7-------|repeat|------------------------------|
D|----------------------| (3x) |------------------------------|
A|----------------------|      |------------------------------|
D|----------------------|      |------------------------------|
pre-chorus
E|--------------------------------------------------------------------|
B|--------------------------------------------------------------------|
G|--------------------------------------------------------------------|
D|--0-0-0-0-0-0-0--1-1-1-1-1-1-1-1--0-0-0-0-0-0-0-0--1-1-1-1-1-1-3-1--|
A|--------------------------------------------------------------------|
D|--------------------------------------------------------------------|
    . . . . . . .  . . . . . . . .  . . . . . . . .  . . . . . . . . 
E|--------------------------------------------------------------------|
B|--------------------------------------------------------------------|
G|--------------------------------------------------------------------|
D|--0-0-0-0-0-0-0--1-1-1-1-1-1-1-1--0-0-0-0-0-0-0-0--1-1-1-1-1-1-3-1--|
A|--------------------------------------------------------------------|
D|--------------------------------------------------------------------|
    . . . . . . .  . . . . . . . .  . . . .
chorus:       1st part                         2nd part          3rd part
E|----------------------------------------|--------------------|---------------|
B|----------------------------------------|-------(9)-(9)-(9)--|--(9)-(9)-(9)--|
G|----------------------------------------|----(9)-------------|---------------|
D|--0-0-0--1-0-0-1--0-0-0-1-0-0-1-0-3-3-1-|-(9)----------------|---------------|
A|--0-0-0--1-0-0-1--0-0-0-1-0-0-1-0-3-3-1-|-(9)----------------|---------------|
D|--0-0-0--1-0-0-1--0-0-0-1-0-0-1-0-3-3-1-|--------------------|---------------|

do intro riff II
do stanza
do pre-chorus 
do chorus

do this riff on 2nd repeating of chorus
E|--------------------------------------------------|
B|--------------------------------------------------|
G|--------------------------------------------------|
D|--3p0-0x-0-0-3p0-0x-0-1-0-3p0-0-0x-0-1-0-3-0-0-x--|
A|--3p0-0x-0-0-3p0-0x-0-1-0-3p0-0-0x-0-1-0-3-0-0-x--|
D|--3p0-0x-0-0-3p0-0x-0-1-0-3p0-0-0x-0-1-0-3-0-0-x--|
                                         .   . .
do stanza riff
do pre-chorus
do riff I

E|----------------|      |--------------    -----------|
B|----------------|      |--------------    -----------|
G|----------------|      |--------------    -----------|
D|----------------|      |--0h3p0-0x-0--(3x)--0h3p0-7--|
A|----------------|repeat|--0h3p0-0x-0--    --0h3p0-5--|
D|--0-0h3p0-0x-0--| (3x) |--0h3p0-0x-0--    --0h3p0-0--|

bridge:
E|----------------------------------------------|
B|----------------------------------------------|
G|----------------------------------------------|
D|--0-0-0-3-3-3-0-0-0-2-2-2-0-0-0-3-3--7-5-5-7--|
A|--0-0-0-3-3-3-0-0-0-2-2-2-0-0-0-3-3--5-3-3-5--|
D|--0-0-0-3-3-3-0-0-0-2-2-2-0-0-0-3-3--0-0-0-0--|

E|-----------------------------------------------|
B|-----------------------------------------------|
G|-----------------------------------------------|
D|--7-7--7-7--8-8-7-7--7-7-8-8-7--7---7---8---7--|
A|--5-5--5-5--6-6-5-5--5-5-6-6-5--5---5---6---5--|
D|--0-0--0-0--0-0-0-0--0-0-0-0-0--0-0-0-0-0-0-0--|
                                    .   .
repeat intro part II riff
                                       end
tabbed by:leander_85@yahoo.com        robot
Comments