Slapshock - Something Beautiful Chords & Tabs

 

Something Beautiful Chords & Tabs

Slapshock Chords & Tabs

Version: 2 Type: Tab 0 ratings
1 star 2 stars 3 stars 4 stars 5 stars
comments

Something Beautiful Tab

   
-----------------------------------------------------------------
SOMETHING BEAUTIFUL - SLAPSHOCK
album : Novena
-----------------------------------------------------------------
Tabbed by: FUKUPSYCHO
Email: s_arima07@yahoo.com
wla akong mkitang tab n2 kaya ayan gumawa ako :D
dis is not nearly 90% or maybe 80% correct but it works
maybe u can correct it urself enjoy!
Tuning: drop C
d
A
F
C
G
C
just figure out the strumming.....
intro:
|-------------------------------------------------|
|-------------------------------------------------|
|-9--10-12---4--5--7---5--7--9----5-4-5-4-5-4-----|
|-x--x--x----x--x--x---x--x--x----x-x-x-x-x-x-----|2x
|-7--9--10---2--3--5---3--5--7----3-2-3-2-3-2-----|
|-------------------------------------------------|
then
|-----------------------|
|-----------------------|
|-----------------------|
|-2-3-2-0-2--2-3-2-0-2--|
|-2-3-2-0-2--2-3-2-0-2--|
|-2-3-2-0-2--2-3-2-0-2--|
verse:
guitar1&2
|-----------------------------------------------|
|-----------------------------------------------|
|-----------------------------------------------|
|----------3----------3-----------3-----------3-|
|-2-2--2-2-3-2-2--2-2-3--2-2--2-2-3--2-2--2-2-3-|
|-2-2--2-2-3-2-2--2-2-3--2-2--2-2-3--2-2--2-2-3-|
im keeping...
guitar 1
|---------------------------------|-------------------------------------|
|---------------------------------|-------------------------------------|
|---------------------------------|-------------------------------------|
|------------3-3-------------3-3--|-2-2-2-4-4-4-5-5-5-7-7---------------|
|-2-2--2-2-2-3-3--2-2--2-2-2-3-3--|-2-2-2-4-4-4-5-5-5-7-7---------------|
|-2-2--2-2-2-3-3--2-2--2-2-2-3-3--|-2-2-2-4-4-4-5-5-5-7-7---------------|
all my chances...
guitar 2
|---------------------------------|-------------------------|
|---------------------------------|-------------------------|
|-9-9--9-9-9-1010-9-9--9-9-9-1010-|-9-9-9-111111121212-1414-|
|-x-x--x-x-x-x-x--x-x--x-x-x-x-x--|-x-x-x-x-x-x-x-x-x--x-x--|
|-7-7--7-7-7-8-8--7-7--7-7-7-8-8--|-7-7-7-9-9-9-101010-1212-|
|---------------------------------|-------------------------|
all my chances...

chorus: not sure but it works for me :D
|--------------------------|
|--------------------------|
|-9-9-9-4-4-4-5-5-5--------|2x
|-x-x-x-x-x-x-x-x-x-5-5-5--|
|-7-7-7-2-2-2-3-3-3-5-5-5--|
|-------------------5-5-5--|
then
|-----------------------|
|-----------------------|
|-----------------------|
|-2-3-2-0-2--2-3-2-0-2--|
|-2-3-2-0-2--2-3-2-0-2--|
|-2-3-2-0-2--2-3-2-0-2--|
repeat 1st stanza and chorus

then:
|-----------------|
|-----------------|
|-9~---7~---2~----|6x
|-x----x----x-----|wla lang just to fill the violin part :D
|-7~---5~---0~----|
|-----------------|
tied my hands....

|-------------------------|-------------------------|
|-------------------------|-------------------------|
|-9-1112--14-12-11-9-(14)-|-9-1112--14-12-11-9-(14)-|
|-x-x-x---x--x--x--x-(x)--|-x-x-x---x--x--x--x-(x)--|
|-7-9-10--12-10-9--7-(12)-|-7-9-10--12-10-9--7-(12)-|
|-------------------------|-------------------------|

|--------------------------|
|--------------------------|
|--9-9-9-111111121212-1414-|
|--x-x-x-x-x-x-x-x-x--x-x--|
|--7-7-7-9-9-9-101010-1212-|
|--------------------------|
chorus:
|--------------------------|
|--------------------------|
|-9-9-9-4-4-4-5-5-5--------|2x
|-x-x-x-x-x-x-x-x-x-5-5-5--|
|-7-7-7-2-2-2-3-3-3-5-5-5--|
|-------------------5-5-5--|

|-------------------------------------------------|
|-------------------------------------------------|
|-9--10-12---4--5--7---5--7--9----5-4-5-4-5-4-----|
|-x--x--x----x--x--x---x--x--x----x-x-x-x-x-x-----|2x
|-7--9--10---2--3--5---3--5--7----3-2-3-2-3-2-----|
|-------------------------------------------------|

|------------------|
|------------------|
|-5-4-5-4-5-4-2----|
|-x-x-x-x-x-x-x----|
|-3-2-3-2-3-2-0----|
|------------------|

un lang!
comments and violent reaction plsss!! s_arima07@yahoo.com
may 4, 2005 wla akong magawa sa bahay kaya e2...
FUKU angas pag walang angas!
[ Tab from: http://www.guitartabs.cc/tabs/s/slapshock/something_beautiful_tab_ver_2.html ]
Comments