Slapshock - Shezzo Wicked Chords & Tabs

 

Shezzo Wicked Chords & Tabs

Slapshock Chords & Tabs

Version: 1 Type: Tab 0 ratings
1 star 2 stars 3 stars 4 stars 5 stars
comments

Shezzo Wicked Tab

SONG: Shezzo Wicked
BAND: Slapshock
ALBUM: Headtrip 
Tuning: Drop d tuning DADGBE
note: Slapshock's tuning is whole step down 
DGCFAD. I only use drop d tuning in order to make the 
song easier to play.

LEGEND:

/ or \   - slide up or down
p        - pull off
h	 - hammer on
p.m. --- - palm mute
b        - bend


Intro:
E ----------------
B ------------3---
G -------------2--
D --0~~~~~~~~-----
A --0~~~~~~~~-----
D --0~~~~~~~~-----

E ------------------------------------------
B ------------------------------------------
G ------------------------------------------
D --0-0---5/7--0-0--7/8--0-0-8/10------8\7--(4x)
A --0-0---3/5--0-0--5/6--0-0-6/8-------6\5--
D --0-0--------0-0-------0-0-------0-0------
p.m.- -        - -       - -       - -
Verse1:
(gtr.1 play this)
E -------------------------------------
B -------------------------------------
G -------------------------------------
D -------------------------------------(4x)
A ------3h5-----5h6------6h8------6p5--
D --0-0-----0-0------0-0------0-0------
p.m.- -     - -      - -      - -
(while gtr.2 play this)
E ---------------------------------------------------------------
B ---------------------------------------------------------------
G ---------------------------------------------------------------
D --0-0-----0-0------0-0------0-0-----0-0--0-0--0-0--0-0--0-0-1--
A --0-0-----0-0------0-0------0-0-----0-0--0-0--0-0--0-0--0-0-1--
D --0-0-----0-0------0-0------0-0-----0-0--0-0--0-0--0-0--0-0-1--
p.m.-       -        -        -       -    -    -    -    - -
-------------------------------
-------------------------------
-------------------------------
----0-0--0-0--0-0--0-0--0-0-1--
----0-0--0-0--0-0--0-0--0-0-1--
----0-0--0-0--0-0--0-0--0-0-1--
p.m.-    -    -    -    - -
[ Tab from: http://www.guitartabs.cc/tabs/s/slapshock/shezzo_wicked_tab.html ]
Pre-Chorus:
E ------------------------------
B ------------------------------
G ------------------------------(4x)
D ------5/7-----7------5/7----7-
A --0-0-3/5-0-0-5--0-0-3/5--0-5-
D --0-0-----0-0----0-0------0---
p.m.- -     - -    - -      -

E --------------------
B --------------------
G --------------------
D ------5/7------7/8--(2x)
A --0-0-3/5--0-0-5/6--
D --0-0------0-0------
p.m.- -      - -

E ----------- ---------
B ----------- ---------
G ----------- ---------
D ----5/7--4x ----7/8--(8x)
A --0-3/5---- 0-0-5/6--
D --0-------  0-0------

Interlude:
E ------------------------------------------
B ------------------------------------------
G ------------------------------------------
D --0-0---5/7--0-0--7/8--0-0-8/10------8\7--(4x)
A --0-0---3/5--0-0--5/6--0-0-6/8-------6\5--
D --0-0--------0-0-------0-0-------0-0------
p.m.- -        - -       - -       - -

Verse2: do verse1 riff
(rep. pre-chorus & chorus)

Interlude2:
E ------------ -10--10--10--10-10-10-
B ------------ ----------------------
G ------------ ----------------------
D --0~~~~~~~~- ----------------------(4x)
A --0~~~~~~~~- ----------------------
D --0~~~~~~~~- ----------------------

E ---------   --------------        -------------------
B ---------   --------------        -------------------
G ---------   --------------        -------------------
D ---------3x --------------(4x)then-------------------
A ------5--   -----5---5--5-        -0-0-0--0-0-0--0-0-
D --0-0----   -0-0---0---0--        -0-0-0--0-0-0--0-0-
p.m.- -        - -   -   -           - - -  - - -  - -

Bridge:
E ---------   ------------------
B ---------   ------------------ 
G ---------   ------------------(8x)
D ------7--3x -----7---7--------
A --0-0-5--   -0-0-5-0-5-0--0-0-
D --0-0----   -0-0---0---0--0-0-
p.m.- -        - -   -   -  - -

(rep. chorus)
Breakdown:
E ---------------------------------|
B ---------------------------------|
G ---------------------------------|
D --0~~~~~~~~--0-0-0--0-0-0--0-0-0-|
A --0~~~~~~~~--0-0-0--0-0-0--0-0-0-|
D --0~~~~~~~~--0-0-0--0-0-0--0-0-0-|
p.m.           - -    - -    - -

_end_
Comments