Slapshock - Queen Paranoia Chords & Tabs

 

Queen Paranoia Chords & Tabs

Slapshock Chords & Tabs

Version: 6 Type: Tab 0 ratings
1 star 2 stars 3 stars 4 stars 5 stars
comments

Queen Paranoia Tab

song:queen paranoia
album:11-41
tabbed by:leander m.
info:any comment E-mail me at leander_85@yahoo.com, or text/call 09193216020

song legend:
. palm mute
/ slide up
\ slide down
h hammer on
p pull off
~ let ring
tune guitar standard

Intro:(clean sound and little bit of delay)
leander:I do this on shortcut and an easy way

E|----------------------------------|
B|------3-----3--3-----3-----3^4r3--|
G|----------------------------------|
D|--0-0---0-0-----------------------|(8x)
A|-----------------0-0---1-1--------|
E|----------------------------------|

stanza
E|------------1---------------------|
B|------3---------------------------|
G|--2-2---2-2--------2-2-----3-3-2--|
D|--0-0---3-3----3-3-----3-3--------|
A|----------------------------------|
E|----------------------------------|
    . . . . . .  . . . . . . . . .
"I've been so fool of you"
E|--------------1-----------------------|
B|------3-------------------------------|
G|--2-2---2-2-2--------2-2-------3-3-2--|
D|--0-0---3-3-3----3-3-----3-3-3--------|
A|--------------------------------------|
E|--------------------------------------|
    . . . . . . .  . . . . . . . . . .
riff I( before refrain)
E|-----------------|
B|-----------------|
G|-----------------|
D|--7--7-7-7-7--7--|(4x)
A|--5--5-5-5-5--5--|
E|--0--0-0-0-0--0--|
[ Tab from: http://www.guitartabs.cc/tabs/s/slapshock/queen_paranoia_tab_ver_6.html ]
refrain:
E|------------------------------------------------------------|
B|------------------------------------------------------------|
G|------------------------------------------------------------|
D|--7------7-7-----8-8-8/10-10--7------7-7-------8-8-8/10-10--|
A|--5--5-5-5-5-----8-8-8/10-10--5--5-5-5-5-------8-8-8/10-10--|
E|--0--0-0-0-0-0-0-6-6-6/8--8---0--0-0-0-0-0-0-0-6-6-6/8--8---|
       . .     . .                 . .     . . .   
E|-----------------|
B|-----------------|
G|-----------------|
D|--7-----------7--|
A|--5--5-5-5-5--5--|
E|--0--0-0-0-0--0--|
       . . . .

ablib:(guitar II)
E|---------------13-------13--------------------|
B|--15-15--15-15----15-15----15-15--------------|
G|---------------------------------15-15-14-15--|
D|----------------------------------------------|(2x)
A|----------------------------------------------|
E|----------------------------------------------|

(repeat stanza with adlib)

bridge(D5-Bb-F)strum this one I cant count it off just hear the CD
E|---------------------------------------|
B|-------------------------6-6-6-6-6-6\--|
G|-------------------------7-7-7-7-7-7\--|(4x)
D|--7-7-7--8-8-8-8--3-3-3----------------|
A|--5-5-5--8-8-8-8--3-3-3----------------|
E|--0-0-0--6-6-6-6--1-1-1----------------|

E|-------------------------------|
B|-------------------------------|
G|-------------------------------|
D|--7-7--7-7-7--7-7-7--7-7-7-10--|(2x)
A|--7-7--7-7-7--7-7-7--7-7-7-10--|
E|--5-5--5-5-5--5-5-5--5-5-5-8---|

E|--------------------------------------|
B|--------------------------------------|
G|--------------------------------------|
D|--7-7-7-7-7-----------7-7-7-7-7--10/--|
A|--5-5-5-5-5-8-8-8-8-8-5-5-5-5-5---8/--|
E|------------6-6-6-6-6-----------------|

       (repeat refrain)
finalle riff:
E|----------------------------------------------------|
B|----------------------------------------------------|
G|----------------------------------------------------|
D|--7---7---7-7---7---7-7---7---7-7\-7-10-7--7-7-7-7--|
A|--5---5---5-5---5---5-5---5---5-5\-5-8--5--5-5-5-5--|
E|--0-0-0-0-0-0-0-0-0-0-0-0-0-0-0-0\-0-0--0--0-0-0-0--|
      .   .     .    .    .   .                        

tabbed by:leander_85@yahoo.com
SANA TAMA ITO!! 

                                    !! End !!
Comments