Slapshock - Queen Paranoia Chords & Tabs

 

Queen Paranoia Chords & Tabs

Slapshock Chords & Tabs

Version: 3 Type: Tab 0 ratings
1 star 2 stars 3 stars 4 stars 5 stars
comments

Queen Paranoia Tab

this tab is dedicated 2 my frendz, kiddie mealz, and to all hardcores..

Song: Queen Paranoia
Artist: Slapshock
Transcribed by: GARY ROQUE + KiDdiE MeAlz

Normal Tuning

Intro:
|-------------------------------------|
|-------------------------------------|
|-------------------------------------|
|--------9----9-9---9----9\10-9-------|
|----7-7--7-7-------------------------|
|----------------7-7--8-8-------------|

|---12-12-12-12-12-12-12-12----------------------------|
|---------------------------12-12-12-13-13-12----------|
|------------------------------------------------------|
|------------------------------------------------------|
|------------------------------------------------------|
|------------------------------------------------------|

Verse:
|---12-12-15-12-15-12-12--------------------|
|-----------------------12-13-12-13---------|
|-------------------------------------------|
|-------------------------------------------|
|-------------------------------------------|
|-------------------------------------------|

|-------------------------------------------|
|--------------8----------------------------|
|-------9-----------------------------------|4x
|-------------------9-9-9-10-10-10-10-9-----|
|---7-7--7-7-7---7--------------------------|
|-------------------------------------------|

|-----------------------------------|
|-----------------------------------|
|---9-9-9-9-9-9---------------------|4x
|---9-9-9-9-9-9---------------------|
|---7-7-7-7-7-7---------------------|
|-----------------------------------|
[ Tab from: http://www.guitartabs.cc/tabs/s/slapshock/queen_paranoia_tab_ver_3.html ]
Chorus:
|--------------------------------|
|--------------------------------|
|---9---5---7--------------------|8x just figure out the strumming
|---9---5---7--------------------|
|---7---3---5--------------------|
|--------------------------------|

|-----------------------------------|
|-----------------------------------|
|---9-9-9-9-9-9---------------------|4x
|---9-9-9-9-9-9---------------------|
|---7-7-7-7-7-7---------------------|
|-----------------------------------|
Repeat Verse and Chorus except last part of chorus


|-------------------------------------------------|
|-------------------------------------------------|
|---9-9-9-9-5-5--------------12-12-12-12-12-12/---|
|---9-9-9-9-5-5-5-5-------------------------------|
|---7-7-7-7-3-3-5-5-------------------------------|
|---------------3-3-------------------------------|

|--------------------------|
|--------------------------|
|---4----7-----------------|2x just figure out the strumming
|---4----7-----------------|
|---2----5-----------------|
|--------------------------|

Guitar Solo:
|-------------------------------------------|
|-------------------------------------------|
|---9-9-9-9-9----------9-9-9-9-9--9-12------|
|---9-9-9-9-9-9-10-9-9-9-9-9-9-9--9-12------|
|---7-7-7-7-7-9-10-9-9-7-7-7-7-7--7-10------|
|-------------7-8--7-7----------------------|
Repeat Chorus

Outro:
|----------------|
|----------------|
|---9------------|16x strumming
|---9------------|
|---7------------|
|----------------|

|---------------------------------|
|---------------------------------|
|---9--12--9---9-9-9-9/-----------|
|---9--12--9---9-9-9-9/-----------|
|---7--10--7---7-7-7-7/-----------|
|---------------------------------|
i'm not 100% sure if this is all correct...... 

Comments