Slapshock - Queen Paranoia Chords & Tabs

 

Queen Paranoia Chords & Tabs

Slapshock Chords & Tabs

Version: 1 Type: Tab 0 ratings
1 star 2 stars 3 stars 4 stars 5 stars
comments

Queen Paranoia Tab

Song: Queen Paranoia	
Artist: Slapshock
Tabbed by: cHOPsUEY

Standard Tuning:

intro:

Gt. 1
e----------------------------------------------------------------------
B----------------------------------------------------------------------
G------7------7-----7-------7------7/8\7-------------------------------8x (0:00)
D----------------------------------------------------------------------
A--5-5----5-5-----5----------------------------------------------------
E-----------------------5-5----5-5-------------------------------------


Gt. 2
e-10-10-10-10-10-10----------------------------------------------------
B-------------------10-10-10--11--11-10--------------------------------
G----------------------------------------------------------------------4x (0:14)
D----------------------------------------------------------------------
A----------------------------------------------------------------------
E----------------------------------------------------------------------


verse

Gt. 1
e----------------------------------------------------------------------
B----------------------------------------------------------------------
G------7------7--7-----------------------------------------------------4x (0:28)
D------------------5-5-5-5-3-3-3-8-8-7---------------------------------
A--5-5----5-5----------------------------------------------------------
E----------------------------------------------------------------------
pm._ _ _  _ _ _  _ _ _ _ _ _ _ _ _ _ _|


Gt. 2
e--10-10---10-13-10-13---10-10-----------------------------------------
B-------------------------------10-11-10-10----------------------------
G---------------------------------------------------------------------- (0:36)
D----------------------------------------------------------------------
A----------------------------------------------------------------------
E----------------------------------------------------------------------

pre-chorus

Gt.1
e----------------------------------------------------------------------
B----------------------------------------------------------------------
G------7------7--7-----------------------------------------------------4x (0:43)
D----------------------------------------------------------------------
A--5-5----5-5------5-5-5-5-3-3-3-3-8-8-7-------------------------------
E----------------------------------------------------------------------
             pm. |_ _ _ _ _ _ _ _ _|  

Gt. 2
e----------------------------------------------------------------------
B----------------------------------------------------------------------
G----------------------------------------------------------------------
D----------------------------------------------------------------------
A----------------------------------------------------------------------
E----------------------------------------------------------------------

Gt.1
e------------------   ----------------------
B------------------   ----------------------
G------------------3x ---------------------- (0:57)
D--7--7-7--7-7--7--   --7--7-7--7-7---------
A--5--5-5--5-5--5--   --5--5-5--5-5---------
E------------------   ----------------------

chorus
Gt. 1
e----------------------------------------------------------------------
B----------------------------------------------------------------------
G----------------------------------------------------------------------8x (1:04)
D---7-x-x-x-x-7-xxx-3--3-3-3-5-5-5-5-----------------------------------
A---5-x-x-x-x-5-xxx-1--1-1-1-3-3-3-3-----------------------------------
E----------------------------------------------------------------------
[ Tab from: http://www.guitartabs.cc/tabs/s/slapshock/queen_paranoia_tab.html ]
Gt.2 second guitar will enter at 1:20 but i can't get it 
e----------------------------------------------------------------------
B----------------------------------------------------------------------
G----------------------------------------------------------------------
D----------------------------------------------------------------------
A----------------------------------------------------------------------
E----------------------------------------------------------------------

Gt.1
e------------------   ----------------------
B------------------   ----------------------
G---------------7--3x ---------------------- (1:33)
D--7--7-7--7-7--7--   --7--7-7--7-7---------
A--5--5-5--5-5--5--   --5--5-5--5-5---------
E------------------   ----------------------

Gt.2
e--10-10---10-13-10-13-10-10-------------------------------------------
B------------------------------10-11-10-10-----------------------------
G----------------------------------------------------------------------2x (1:41)
D----------------------------------------------------------------------
A----------------------------------------------------------------------
E----------------------------------------------------------------------

repeat verse 
gt.1 (1:55)
gt.2 (2:03)

repeat pre chorus
Gt.1 (2:09)

Gt.1
e------------------   ----------------------
B------------------   ----------------------
G------------------3x ---------------------- (2:24)
D--7--7-7--7-7--7--   --7--7-7--7-7---------
A--5--5-5--5-5--5--   --5--5-5--5-5---------
E------------------   ----------------------

repeat the chorus part (2:31)

gt.1
e----------------------------------------------------------------------
B----------------------------------------------------------------------
G----------------------------------------------------------------------4x (2:59)
D--7-7---x-x-x-3--x-x-x-x---------3--------10-10-10-10-10-10-----------
A--5-5---x-x-x-1--x-x-x-x--3--3-3-3--3-3---8--8--8--8--8--8------------
E--------------------------1--1-1-1--1-1-------------------------------
gt.2                                 
e----------------------------------------------------------------------
B----------------------------------------------------------------------
G-----------------------------------------10-10-10-10-10-10------------
D----------------------------------------------------------------------
A-----------------------------------------8--8--8--8--8--8-------------
E----------------------------------------------------------------------

GT.1
e----------------------------------------------------------------------
B----------------------------------------------------------------------
G----------------------------------------------------------------------2x (3:28)
D----------------------------------------------------------------------
A--5/7--5/7--7--5/7--7--5/7--7--5/10--10-10-10-10-10-10-10-10-10-10-10-
E--3/5--3/5--5--3/5--5--3/5--5--3/8---8--8--8--8--8--8--8--8--8--8--8--

Gt.2
e----------------------------------------------------------------------
B----------------------------------------------------------------------
G--7--7-7-7-7-7--7-3-3-3-3--x------------------------------------------(3:42)
D--x--x-x-x-x-x--x-x-x-x-x--x-/10--------------------------------------
A--5--5-5-5-5-5--5-1-1-1-1--x-/8---------------------------------------
E----------------------------------------------------------------------

repeat pre chorus
Gt.1 (3:47)


end


I just got this by acoustic guitar so don't expect 
that this  is 100% correct but this is how I play it!
Give  me some  corrections   at   blakspinx@yahoo.com
Comments