Slapshock - Numb Chords & Tabs

 

Numb Chords & Tabs

Slapshock Chords & Tabs

Version: 2 Type: Tab 0 ratings
1 star 2 stars 3 stars 4 stars 5 stars
comments

Numb Tab

artist:slapshit
song:numb
album:11-41
tab by:leander_85@yahoo.com
tune guitar 1-drop D
info:I hate PINOY RAPMETALS goddamn those sh*t it hurt my ears parang mge
tiga  bundok ginawa ko lang this coz there somoene request it i hhope this
is correct damn all of you burn in hell yeah!! WOLFGANG RULZ & all heavy
metals there

intro:
E|-------------------------------------------------|
B|-------------------------------------------------|
G|-------------------------------------------------|
D|-------------------------------------------------|
A|-------------------------------2--0-2-0-2-0-0-2--|
D|--0-0-0-2-2-2-0-0-0-2-2-2--0-0-0--0-2-0-2-0-0-2--|
    . . . . . . . . . . . .  . . .  
RIFF I 
E|-------------------------------------------------|
B|-------------------------------------------------|
G|--5-5---------5-5---------5-5---------5-6--------|
D|--5-5---------5-5---------5-5---------5-6--------|
A|--3-3---------3-3---------3-3---------3-4--------|
D|------0-0-0-0-----0-0-0-0-----0-0-0-0------------|

guitar II only(strum cleand sound)-C
E|-----|
B|-----|
G|--5--|
D|--5--|
A|--3--|
D|-----|

STANZA-C(guitar I)   (guitar II)
E|----------------||--9-----9---------9----|
B|----------------||----8-----8-----8------|
G|----------------||------6-----6-6--------|
D|--5-x-5~~~-x----||-----------------------|
A|--3-x-3~~~-x----||-----------------------|
D|--0-x-0~~~-x----||-----------------------|
[ Tab from: http://www.guitartabs.cc/tabs/s/slapshock/numb_tab_ver_2.html ]
refrain
E|-------------------------------------------------|
B|-------------------------------------------------|
G|--5-5-----------------5-5------------------------|
D|--5-5-----------------5-5------------------------|
A|--3-3-----------------3-3------------------------|
D|--0-0--3p0-2p0-0-1-3--0-0--3p0-2p0-0-1-3---------|

chorus
E|-------------------------------------------------|
B|-------------------------------------------------|
G|------5~~~-5-7-8-7-5-----5~~~7-8-----------------|
D|------5~~~-5-7-8-7-5-----5~~~7-8-----------------|
A|--5-6-3~~~-3-5-6-5-3-5-3-3~~~5-6-----------------|
D|--5-6----------------5-3-------------------------|

riff II
guitar I only
E|-----------------------------------------------------|
B|-----------------------------------------------------|
G|-----------------------------------------------------|
D|-----------------------------------------------------|
A|----0-2-0-2-0-2-0-2-0-2---0-2-0-2-0-2-0-2-0-2--------|
E|--0---------------------0---------------------0-0-0--|
    .                     .                     . . .

guitar I&II
E|-----------------------------------------------------|
B|-----------------------------------------------------|
G|-----------------------------------------------------|
D|----0-5-0-5-0-5-0-5-0-5------------------------------|
A|----0-3-0-3-0-3-0-3-0-3------------------------------|
D|--0---------------------0-0--------------------------|
    .                     . . 

tab by:leander m.               the end
                               COR@_T!R@
Comments