Slapshock - Numb Chords & Tabs

 

Numb Chords & Tabs

Slapshock Chords & Tabs

Version: 1 Type: Tab 0 ratings
1 star 2 stars 3 stars 4 stars 5 stars
comments

Numb Tab

   
my_scar.tab



A:link {
	FONT-WEIGHT: bold; COLOR: black; TEXT-DECORATION: none
}
A:active {
	FONT-WEIGHT: bold; COLOR: black; TEXT-DECORATION: none
}
A:visited {
	FONT-WEIGHT: bold; COLOR: black; TEXT-DECORATION: none
}
A:hover {
	FONT-WEIGHT: bold; COLOR: black; TEXT-DECORATION: underline
}


-----------------------------------------------------------------------------
This file is the author's own work and represents their interpretation of the
song.You may only use this file for private study, scholarship, or research.
-----------------------------------------------------------------------------

SONG: Numb
BAND: Slapshock 
ALBUM: Project 11-41
TRANSCRIBED BY: Francis Sherlock Codilla
email:  (sherlock_francis@yahoo.com)
     :  (blaudemere_veloso@eudoramail.com)

Tuning: Tune guitar whole step down (DGCFAD). 

LEGEND:

/ or \   - slide up or down
p        - pull off
h	 - hammer on
p.m. --- - palm mute
b        - bend
x        -lick



Intro:w/distortion

 guitar 1 fig.a
D --------------------------------------------------------------------------------|
A --------------------------------------------------------------------------------|
F --------------------------------------------------------------------------------|
C --------------------------------------------------------------------------------|
G --------------------------------------------------------------------------------|
C -1-2-3---1-2-3-1-2---1-2-3---1-2-3-1-2---1-2-3---1-2-3-1-2---1-2-3---1-2-3-1-2--|
p.m.-- -   - - - - -   - - - - - - - - -   - - -   - - - - -   - - -   - - - - - 

  guitar 1 fig.b
D -------------------------------------------------------------------------------|
A -------------------------------------------------------------------------------|
F -------------------------------------------------------------------------------|
C -7-7-7-7--x-x-x---7-7-7-7--x-x-x----7-7-7-7--x-x-x---7-7-7-7-7--7--------------|3x
G -5-5-5-5--x-x-x---5-5-5-5--x-x-x----5-5-5-5--x-x-x---5-5-5-5-h6-5--------------|
C -------------------------------------------------------------------------------|

  guitar 1 fig.c
verse:guitar w/o distortion                       guitar 1 fig.d
D -------------------------------------------|-------------------------------------
A -------------------------------------------|-------------------------------------
F -7-7-7-7-7-7--5-5-5-5-5-5---7-7-7-7-7-7-5--|-------------------------------------
C -7-7-7-7-7-7--5-5-5-5-5-5---7-7-7-7-7-7-5--|-5-5-x-x--5-5-x-x---5-5-x-x--5-5-x-x-
G -5-5-5-5-5-5--3-3-3-3-3-3---5-5-5-5-5-5-3--|-5-5-x-x--5-5-x-x---5-5-x-x--5-5-x-x-
C -------------------------------------------|-5-5-x-x--5-5-x-x---5-5-x-x--5-5-x-x-
[ Tab from: http://www.guitartabs.cc/tabs/s/slapshock/numb_tab.html ]
                  ***a 2nd guitar enters at this part***
D -----------------------------------------------------------------------------
A -----------------------------------------------------------------------------
F -----------------------------------------------------------------------------
C -5-5-x-x--5-5-x-x--5-5-x-x--5-5-x-x------------------------------------------repeat
G -5-5-x-x--5-5-x-x--5-5-x-x--5-5-x-x------------------------------------------
C -5-5-x-x--5-5-x-x--5-5-x-x--5-5-x-x------------------------------------------
          
   2nd guitar
D -------------------------------------------------------------------------------|
A ---JUST------------------------------------------------------------------------|
F ----------FIGURE---------------------------------------------------------------|
C -------------------IT----------------------------------------------------------|
G ------------------------OUT----------------------------------------------------|
C --------------------------------YOURSELF---------------------------------------|
 (pre chorus)
 guitar 1 fig.e (rap comes in)
D -------------------------------------------------------------------------------
A -------------------------------------------------------------------------------
F -------------------------------------------------------------------------------
C --o-5-5--------5-5-------------------------------------------------------------repeat
G --o-5-5--------5-5---oh5-0h6-5-7-----------------------------------------------
C --o-5-5--------5-5-------------------------------------------------------------
p.m.- - -
 (chorus)
D -------------------------------------------------------------------------------|
A -------------------------------------------------------------------------------|
F -------------------------------------------------------------------------------|
C -------------5----------------------------5-5----------------------------------|then back
G -7-7---8-8---5---7-7-7---------3-3-3------5-5----------------------------------|to fig.b
C -5-5---6-6---5---5-5-5---------1-1-1------5-5----------------------------------|
                  cause i know....

  fig.69
D ------------|------------------------|-------------------------------------------------|
A ------------|------------------------|-------------------------------------------------|
F ------------|------------------------|-------------------------------------------------|repeat
C -------5----|------------------------|--0--2-------------------------------------------|
G -7--8--5----|-0h2-3p2-0h2-4-(repeat)-|--0--2--0h2-3p2-0h2-4-(repeat)-------------------|
C -5--6--5----|------------------------|--0--2--0-0-0-0-0-0-0----------------------------|
p.m.                                      -  -
then the ending part follows fig.69!!!


Verse:Wel for sure i know how to sing cauze i know how to rap,,..but ya know honestly i dont
know how to jamn and do the the fucken' vocal effects of Jamir Garcia as its kinda hard.But anyway
for all Slapshock fans out there, just visit www.pinoycentral/slapshock.com ok?


  For comments,suggestions,threats and anything of the sort,just e-mail me at this fucken'
 adress,,sherlock_francis@yahoo.com





Comments