Slapshock - Numb Chords & Tabs

 

Numb Chords & Tabs

Slapshock Chords & Tabs

Version: 1 Type: Bass Tab 0 ratings
1 star 2 stars 3 stars 4 stars 5 stars
comments

Numb Bass Tab

   
numb
slapshock
bass tab
tuning: DADG (dropped D)
intro:
part I
|------------------------------------|
|------------------------------------|
|------------------------------------| 4x
|--0--2-2-2--0--2-2-2--0--2-2--------|

part II
|------------------------------------|
|------------------------------------|
|--3---3------3---3---3/4------------| 4x
|------------------------------------|

verse
|------------------------------------|
|------------------------------------|
|--3----3-------3----3---------------| 6x
|------------------------------------|

pre-chorus
|------------------------------------|
|------------------------------------|
|--3--3------------------------------| 7x  Then
|---------3p0--2p0--0-1-3------------|

|-------------------------|
|-------------------------|
|-3-3--3-3--3-3-----------|
|-------------------------|
[ Tab from: http://www.guitartabs.cc/tabs/s/slapshock/numb_btab.html ]
chorus 1
|------------------------------------------------|
|------------------------------------------------|
|-----------------3-3-3-----------------3-3-3----|2x
|--5-5-5---6-6-6----------5-5-5--1-1-1-----------|

chorus 2
|------------------------------------------------|
|------------------------------------------------|
|-----------------3-3-3-----------------3-3-3----| 
|--5-5-5---6-6-6----------5-5-5--1-1-1-----------|

|------------------------------------------------|
|------------------------------------------------|
|---------------3~~~-------------------3~~~~-----| 
|--5~~~---6~~~-----------5~~~--1~~~--------------|


bridge
|---------------------------------------------|
|---------------------------------------------|
|--3-3-3-3-3-3-3-3-3-3-3-3-3------------------| repeat until it's needed
|---------------------------------------------|

chorus 3:
|------------------------------------------------|
|------------------------------------------------|
|-----------------3-3-3-----------------3-3-3----|2x
|--5-5-5--6--6\----------5-5-5--1-1-1------------|

outro
|------------------------------------|
|------------------------------------|
|------------------3~~~~~------------|
|--5~~~~~--1~~~~~--------------------|
Comments