Slapshock - My Skar Chords & Tabs

 

My Skar Chords & Tabs

Slapshock Chords & Tabs

Version: 1 Type: Tab 0 ratings
1 star 2 stars 3 stars 4 stars 5 stars
comments

My Skar Tab

-----------------------------------------------------------------------------
This file is the author's own work and represents their interpretation of the
song.You may only use this file for private study, scholarship, or research.
-----------------------------------------------------------------------------

SONG: My Skar
BAND: Slapshock featuring Scarlet from Pu3ska
ALBUM: Headtrip

Tuning: Tune guitar whole step down (DGCFAD) then drop d. 

LEGEND:

/ or \   - slide up or down
p        - pull off
h	 - hammer on
p.m. --- - palm mute
b        - bend

Intro:
D ------------   ------------
A ------------   ------------
F ------------4x ------------ (4x)
C --0---------   --------7---
G --0--5h6-5--   ---5h6------
C --0--------    -0----------
p.m.              -

D ----------------------------------------------   --------------------
A ----------------------------------------------   --------------------
F ----------------------------------------------4x --------------------
C --0-------0-------0---0-------0-------7h8-7---   -1-1-1--1-1-1-1-1-1-
G --0-5h6-5-0-5h6-5-0-5-0-5h6-5-0-5h6-5---------   -1-1-1--1-1-1-1-1-1-
C --0-------0-------0---0-------0---------------   -1-1-1--1-1-1-1-1-1-
p.m.-       -       -   -       -                   - - -  - - - - - -

Verse:
D -------------------------------------------------
A -------------------------------------------------
F -------------------------------------------------(4x)
C --0-0-0--0-0-0-0--0-0--0-0-0-0-0--0-0-0-0-0-6h7--
G --0-0-0--0-0-0-0--0-0--0-0-0-0-0--0-0-0-0-0------
C --0-0-0--0-0-0-0--0-0--0-0-0-0-0--0-0-0-0-0------
p.m - - -  - - - -  - -  - - - - -  - - - - -

Pre-Chorus:
D -----------  ---------------------------  
A -----------  ---------------------------  
F -----------  ---------------------------2x (2x)
C --0--3--5--  --0-0--0---0-0--0---0-0----  
G --0--3--5--  --0-0--0-5-0-0--0-5-0-0-5--  
C --0--3--5--  --0-0--0---0-0--0---0-0----  
[ Tab from: http://www.guitartabs.cc/tabs/s/slapshock/my_skar_tab.html ]
Chorus:                                1st time  2nd time
D -------------------------------------|-------|-----------|
A -------------------------------------|-------|-----------|  
F -------------------------------------|-------|-----5-8-7-|(2x)
C --0-------0-------0---0-------0------|-7h8-7-|-0-9-------|   
G --0-5h6-5-0-5h6-5-0-5-0-5h6-5-0-5h6-5|-------|-0---------|
C --0-------0-------0---0-------0------|-------|-0---------|
p.m.-       -       -   -       -                -

Verse2:
D -------------------------------------------------
A -------------------------------------------------
F -------------------------------------------------4x
C --0-0-0--0-0-0-0--0-0--0-0-0-0-0--0-0-0-0-0-6h7--
G --0-0-0--0-0-0-0--0-0--0-0-0-0-0--0-0-0-0-0------
C --0-0-0--0-0-0-0--0-0--0-0-0-0-0--0-0-0-0-0------
p.m - - -  - - - -  - -  - - - - -  - - - - -             

(repeat pre-chorus & chorus) 

Bridge:
D ----------------------------------
A ----------------------------------
F ----------------------------------4x
C ------------------000--1-1----0---
G --55-55-55-55-55--000--1-1----0---
C ------------------000--1-1----0---
p.m.                --
           1st-3rd time    4th time
D -------   ----------     -------------------
A -------   ----------     -------------------
F -------8x ----------(3x) -------------------
C --0-0--   ----------     --0-0-0-0-0-0-0-0--
G --0-0--   --0-5-0-5-     --0-0-0-0-0-0-0-0--
C --0-0--   --0---0---     --0-0-0-0-0-0-0-0--
p.m.- -       -   -          - - - - - - - -

Coda:
D --------------------------------------
A --------------------------------------
F --------------------------------------
C --0-------0-------0-------0-------0---
G --0-5h6-5-0-5h6-5-0-5h6-5-0-5h6-5-0-5-
C --0-------0-------0-------0-------0---
p.m.-       -       -       -       -

D ----------------------------------------------
A ----------------------------------------------
F ----------------------------------------------
C --0-------0------0-0-0-0---0-------0-------0--
G --0-5h6-5-0-5h6--0-0-0-0---0-5h6-5-0-5h6-4-0--
C --0-------0------0-0-0-0---0-------0-------0--
p.m.-       -      - - - -   -       -       

Hope you guyz will enjoy this tabs. If you find something
That is not right; e-mail me at krozzbridd@hotmail.com
               ++++++ TRASHER RULZ!!!! ++++++

Comments