Slapshock - My Skar Chords & Tabs

 

My Skar Chords & Tabs

Slapshock Chords & Tabs

Version: 1 Type: Bass Tab 0 ratings
1 star 2 stars 3 stars 4 stars 5 stars
comments

My Skar Bass Tab

-----------------------------------------------------------------------------
This file is the author's own work and represents their interpretation of the
song.You may only use this file for private study, scholarship, or research.
-----------------------------------------------------------------------------

SONG: My Skar(BaSs TaBs)
BAND: Slapshock featuring Scarlet from Pu3ska
ALBUM: Headtrip
Hey wass up!? 
Tuning: Tune guitar whole step down (DGCF)  

LEGEND:

/ or \   - slide up or down
p        - pull off
h	 - hammer on
b        - bend
~        - vibrato 
Intro:

F ------------4x ------------ (4x)
C ------------   --------7---
G -----5h6-5--   ---5h6------
D --0---------   -0----------




F ----------------------------------------------4x --------------------
C --------------------------------------7h8-7---   --------------------
G ----5h6-5---5h6-5---5---5h6-5---5h6-5---------   --------------------
D --0-------0-------0---0-------0---------------   -1-1-1--1-1-1-1-1-1-


Verse:

F -------------------------------------------------(4x)
C --------------------------------------------6h7--
G -------------------------------------------------
D --0-0-0--0-0-0-0--0-0--0-0-0-0-0--0-0-0-0-0------

[ Tab from: http://www.guitartabs.cc/tabs/s/slapshock/my_skar_btab.html ]
Pre-Chorus:
F -----------  --------------------------- (2x)
C -----------  ---------------------------  
G -----------  ---------5--------5-----5--  
D --0--3--5--  --0-0--0---0-0--0---0-0----  

Chorus:                                1st time  2nd time
 
F -------------------------------------|-------|-----5-8-7-|(2x)
C -------------------------------------|-7h8-7-|---9-------|   
G ----5h6-5---5h6-5---5---5h6-5---5h6-5|-------|-----------|
D --0-------0-------0---0-------0------|-------|-0---------|

Verse2:
4x
F -------------------------------------------------
C --------------------------------------------6h7--
G -------------------------------------------------
D --0-0-0--0-0-0-0--0-0--0-0-0-0-0--0-0-0-0-0------


(repeat pre-chorus & chorus) 

Bridge:

F ----|--------------------(4X)
C ----|--------------------
G ----|--------------------
D –0~-|----000--1-1----0---

           1st-3rd time    4th time

F -------8x ----------(3x) -------------------
C -------   ----------     -------------------
G -------   --0-----5-     -------------------
D --0-0--   --0---0---     --0-0-0-0-0-0-0-0--


Coda:
F --------------------------------------
C --------------------------------------
G ----5h6-5---5h6-5---5h6-5---5h6-5---5-
D --0-------0-------0-------0-------0---



F ---------------------------------------
C –--------------------------------------
G ----5h6-5---5h6-------5h6-5---5h6-4----
C --0-------0---------0-------0-------0--


THAT’S THE BASS TABS>>>>>>>> here’s my syt; 
krozzbridd@hotmail.com
               ++++++ TRASHER RULZ!!!! ++++++

Comments