Slapshock - Misterio Chords & Tabs

 

Misterio Chords & Tabs

Slapshock Chords & Tabs

Version: 4 Type: Tab 0 ratings
1 star 2 stars 3 stars 4 stars 5 stars
comments

Misterio Tab

 Slapshock
 Novena
 Misterio
 CGCFAD
 simply_jmz214@yahoo.com

Jamir O.K k talaga!!! pro dya mo ha, may show ka sa gensan di mo ako cnabihan..........

Intro
|------------------------------------------------|
|------------------------------------------------|
|------------------------------------------------|
|0-2-3-2-5-3-2-3333----0-2-3-2-5-3-2-3333--------|
|-2--2--2--2--2---------0-0--0-0-0-0-0-----------|
|------------------------------------------------|


Verse
|-------------------|
|-------------------|
|----------------10-|
|0-0-0-0--8-8-8--8--|
|0-0-0-0--8-8-8--8--|
|0-0-0-0--8-8-8--8--|
[ Tab from: http://www.guitartabs.cc/tabs/s/slapshock/misterio_tab_ver_4.html ]
Pre Chorus
|-----------------------|
|-----------------------|
|7--9-10-9-12-10-999999-|
|-----------------------|
|-----------------------|
|-----------------------|

Chorus
|---------------------------------------------|
|---------------------------------------------|
|---------------------------------------------|
|0-0-0--8-8-8--10-10-10---12-12-12xx8-8-8--10-|
|0-0-0--8-8-8--10-10-10---12-12-12xx8-8-8--10-|
|0-0-0--8-8-8--10-10-10---12-12-12xx8-8-8--10-|

The higher bits during the chorus add the next note on the G string

Like this
|
|
|10
|8
|8
|8

bridge
|------------------|
|------------------|
|------------------|
|3-2-0---3-3-3-3---|
|--------3-3-3-3---|
|--------3-3-3-3---|
tapusin ang kanta sa intro....
sa bridge k na yan, listen to the song na lng
Comments