Slapshock - Misterio Chords & Tabs

 

Misterio Chords & Tabs

Slapshock Chords & Tabs

Version: 3 Type: Tab 0 ratings
1 star 2 stars 3 stars 4 stars 5 stars
comments

Misterio Tab

   
Band: SLAPSHOCK
Song: MISTERIO
Album: Novena
Tuning: drop D (D A D G B E)
Tabbed by: Mark Mon E. Monteros
address: Surigao City, Philippines
email: @mark_qute / or call (09223725967)

SlapsHocK R0cKz!!!! d'beSt rApmEtAl baNd..!
HARDCORE RULEZ..!!! Play whole song w/ distortion

[Intro]

  guitar 1
E|----------------------------------|
B|----------------------------------|
G|----------------------------------|
D|-2--4--5---4--7--5---4--5-5-5-5---| (8x)
A|---4---4--4--4---4--4--4----------|
D|----------------------------------|

[Verse]

  guitar 2
E|-------------------------------------------------|
B|-------------------------------------------------|
G|-------------------------------------------------|
D|-0--0--x-x--0-0--x-x-x---0--0--x-x--0-0--x-x-x---|
A|-0--0--x-x--0-0--x-x-x---0--0--x-x--0-0--x-x-x---|
D|-0--0--x-x--0-0--x-x-x---0--0--x-x--0-0--x-x-x---|
 |						   |==\
 |						   |   > (2x)
 |guitar 1					   |==/
E|-------------------------------------------------|
B|-------------------------------------------------|
G|---------10----------10----------10----------10--|
D|-x-x--8--8---x-x--8--8---x-x--8--8---x-x--8--8---|
A|-x-x--8--8---x-x--8--8---x-x--8--8---x-x--8--8---|
D|-x-x--8--8---x-x--8--8---x-x--8--8---x-x--8--8---|
        .           .           .           .
       PM          PM          PM          PM

[Pre-Chorus]

  guitar 1
E|-----------------------------------------|
B|-----------------------------------------|
G|-7-9-9-10-10-9-9-12-12-10-10--9-9-10-10--|
D|-----------------------------------------| (7x)
A|-----------------------------------------|
D|-----------------------------------------|

  guitar 1                                           guitar 2
E|--------------------------------------|          E|--------------|
B|--------------------------------------|          B|--------------|
G|-7-9-9-10-10-9-9-12-12-10-10-10-------|          G|--------------|
D|--------------------------------------| [break]  D|-0-0--0-0--0--|
A|--------------------------------------|          A|-0-0--0-0--0--|
D|--------------------------------------|          D|-0-0--0-0--0--|

[Chorus]
[ Tab from: http://www.guitartabs.cc/tabs/s/slapshock/misterio_tab_ver_3.html ]
  guitar 1 & guitar 2
E|-------------------------------------------------------|
B|-------------------------------------------------------|
G|-------------------------------------------------------|
D|-0--0--0--8-8--8--10-10--10--12-12-12-12-x-x-8-8-8/10--| (2x)
A|-0--0--0--8-8--8--10-10--10--12-12-12-12-x-x-8-8-8/10--|
D|-0--0--0--8-8--8--10-10--10--12-12-12-12-x-x-8-8-8/10--|

{Repeat Verse}
{Repeat Pre-Chorus}
{Repeat Chorus}

[Bridge]

  guitar 1
E|--------------------------------------------|
B|-13-13-15-13-16-13-15-13-13-15-13-16-13-15--|
G|--------------------------------------------|
D|--------------------------------------------| (8x)
A|--------------------------------------------|
D|--------------------------------------------|
  guitar 1
E|--------------------------------------------|
B|-15-13-13-15-13-13-16--15-13-13-16-13-13----|
G|--------------------------------------------|
D|--------------------------------------------|
A|--------------------------------------------|
D|--------------------------------------------|
  guitar 1
E|--------------------------------------------|
B|-13-13-15-13-16-13-15-13-13-15-13-16-13-15--|
G|--------------------------------------------|
D|--------------------------------------------|
A|--------------------------------------------|
D|--------------------------------------------|
 |                                            |==\
 |                                            |   > (2x)
 |guitar 2                                    |==/             guitar 2
E|--------------------------------------------|              E|--------------|
B|--------------------------------------------|              B|--------------|
G|--------------------------------------------|     [break]  G|--------------|
D|-3-2-0---3-3-3-3----------------------------|              D|-0-0--0-0--0--|
A|---------3-3-3-3----------------------------|              A|-0-0--0-0--0--|
D|---------3-3-3-3----------------------------|              D|-0-0--0-0--0--|

{Repeat Chorus}
{Repeat Intro} (7x only)

[Ending Part]

  guitar 1
E|---------------------------|
B|---------------------------|
G|---------------------------|
D|-2--4--5---4--7--5---4-----|
A|---4---4--4--4---4--4--4---|
D|---------------------------|
  guitar 2
E|-----------|
B|-----------|
G|-----------|
D|-4--4--4---|
A|-4--4--4---|
D|-4--4--4---|


song legend:
------------
. - palm mute
x - tap
/ - slide up
\ - slide down
h - hammer on
p - pull off
~ - let ring

I'm absolutely 98% correct... Listen to their CD to get the timing & rhythm..
mga tol..! Pls. rate this tab.. @mrk_qt --> mark^mon_guap0..!
Comments