Slapshock - Misterio Chords & Tabs

 

Misterio Chords & Tabs

Slapshock Chords & Tabs

Version: 2 Type: Tab 0 ratings
1 star 2 stars 3 stars 4 stars 5 stars
comments

Misterio Tab

Mistero Rockzz!!!
just e-mail me at deftones_lp2003@yahoo.com
kinakapa ko pa ung bridge!!!
Christian Jasper Victoria
DROP D ito!!! dude

Intro
-------------------------------------------------------|
-------------------------------------------------------|
----------------------------11-------------------------|
-----11/13--14--13--14--13------14---------------------|2x
-------------------------------------------------------|
-------------------------------------------------------|

-------------------------------------------------------|
-------------------------------------------------------|
----------------------------11-------------------------|
-----11--11--14--13--14--13-----14---------------------|2X
-------------------------------------------------------|
-------------------------------------------------------|

Repeat Intro
[ Tab from: http://www.guitartabs.cc/tabs/s/slapshock/misterio_tab_ver_2.html ]
Verse 1
-------------------------------------------------------|
-------------------------------------------------------|
-------------------------------------------------------|
----0-0-x-x-0-0-x-x-0-0-x-x-0-0-x-x-----x-x--x/12------|2X
----0-0-x-x-0-0-x-x-0-0-x-x-0-0-x-x-----x-x--x/12--4x--|
----0-0-x-x-0-0-x-x-0-0-x-x-0-0-x-x-----x-x--x/12------|

Refrain (Repeat Intro)

Chorus
-------------------------------------------------------|
-------------------------------------------------------|
-------------------------------------------------------|
----0-0-8-8/10-10-10-10--12-12-12--12-12-12--8-8-8-----|
----0-0-8-8/10-10-10-10--12-12-12--12-12-12--8-8-8-----|
----0-0-8-8/10-10-10-10--12-12-12--12-12-12--8-8-8-----|
continuation
-------------------------------------------------------|
-------------------------------------------------------|
-------------------------------------------------------|
----8-8-8/10-10-10-10----0-----------------------------|
----8-8-8/10-10-10-10-2x-0-----------------------------|
----8-8-8/10-10-10-10----0-----------------------------|

Verse 2 (repeat verse 1)
Refrain
Chorus

I dedicate dis 2 my band mates in freezing point... jason, vladi, chino, and hart. and 
to The Beidog Band... Rock on!!!
Comments