Slapshock - Miles Away Chords & Tabs

 

Miles Away Chords & Tabs

Slapshock Chords & Tabs

Version: 2 Type: Tab 0 ratings
1 star 2 stars 3 stars 4 stars 5 stars
comments

Miles Away Tab

   
Title: Miles Away
Artist/Band: Slapshock
Type of File: Guitar Tab
Tuning: *Drop-D
*Not sure about this tuning but it will do.

I'm not really sure about the strumming pattern of this song so maybe you guys can
figure it out especially the lead lines. I think the chords are 90% right.

Rhy. Fig 1:(4x)

Gtr. 1(dist.)
|---------------------------|------------------------|
|---------------------------|------------------------|
|---------------------------|------------------------|
|--5---5--5-----5--5--5--5--|--1--1-1-1--3--3--3--0--|
|--5---5--5-----5--5--5--5--|--1--1-1-1--3--3--3--0--|
|--5---5--5-----5--5--5--5--|--1--1-1-1--3--3--3--0--|
|
Gtr. 2(dist.)
|--151715171517-151715171517|------------------------|
|---------------------------|--16-16--15-18-18-18-15-|
|---------------------------|------------------------|
|---------------------------|------------------------|
|---------------------------|------------------------|
|---------------------------|------------------------|

Riff A:(5x)

Gtr. 1(clean)
|--------------------------------------------|
|------------8------------------------6------|
|---------------7----------3------------5----|
|--------5----5---5------1---1------3-----3--|
|-----5----5-----------1----------3----------|
|--5-----------------1----------3------------|


Rhy. Fig. 2:(2x)

Gtr. 1 and 2(dist.)
|-----------------|---------------------|----------------|-----------------|
|-----------------|---------------------|----------------|-----------------|
|-----------------|---------------------|----------------|-----------------|
|--7--7--7-9--7-9-|--10-10-10-7--7--7---|--5--5--5-5-5-5-|--7--5--5-5-5-5--|
|--5--5--5-5--5-5-|--7--7--7--10-10-10--|--3--3--3-3-3-3-|--5--5--5-5-5-5--|
|--5--5--5-5--5-5-|--7--7--7--7--7--7---|--3--3--3-3-3-3-|--5--5--5-5-5-5--|

Rhy. Fig. 3(the best "I'm not sure about this" part)(4x)

Gtr 1 and 2(dist.)
[ Tab from: http://www.guitartabs.cc/tabs/s/slapshock/miles_away_tab_ver_2.html ]
|----------------------------|----------------------------|
|----------------------------|----------------------------|
|----------------------------|----------------------------|
|-5--3-5-3-5--5--5-----------|-5--3-5-3-5--5--5-----------|
|-5--3-5-3-5--5--5-----------|-5--3-5-3-5--5--5-----------|
|-5--3-5-3-5--5--5--10--9--7-|-5--3-5-3-5--5--5--10--9--7-|

Rhy. Fig. 4

Gtr.1(clean)
                                                           |--Rhy. Fill 1--|
|--------------------------------------------------------------------------|
|--------------------------------------------------------------------------|
|------------------------------------------(5)---------(7)-----------------|
|--7-7---7-9---9--7-9-10--10-------------5--5--5-5-5--5(7)--5--5---5-5--5--|
|--5-5---5-5---5--5-5-7---7--10--10-10---3--3--3-3-3--3-5---5--5---5-5--5--|
|--5-5---5-5---5--5-5-7---7--7---7--7----3--3--3-3-3--3-5---5--5---5-5--5--|

Rhy. Fill 2

Gtr. 1
|------------------------|
|---------8-----------8~-|
|-----------7--------7~--|
|------5------5-----5~---|
|----5-------------5~----|
|--5--------------5~-----|


Structure:

Intro: Rhy. Fig. 1
Verses: Riff A
Pre-chorus: whole rest
Chorus: Rhy. Fig. 2
Post-Chorus: Rhy. Fig. 1
Verses 2: Riff A
Pre-chorus: whole rest
Chorus: Rhy. Fig. 2
Bridge: Rhy. Fig. 3
Chorus: Rhy. Fig. 4 with Rhy. Fill 1 then, play Rhy. Fig. 2 1 1/2 times and hold the
F5 chord
Outro: Rhy. Fig. 4 with Rhy. Fill 2

++++++++++++++++++++++++++++++++++++FIN++++++++++++++++++++++++++++++++++++++

     This work goes out to my bandmates, (my Ibanez RG, my Ibanez RG-7321, my Jackson
Dinkys, my BC Rich KKV, my Fender Telecaster, my Marshall amps especially Mode 4, my
Digitech Death Metal Distortion, Hey What I am doing?)I want to have this gear!, my
friends and my love who I think of every hour because she is miles away from my location
right now I think I can't see her again and again and again and again.

     Any comments, suggestions, tricks, insults, bomb threats, death threats, prejudices,
discriminations, hurting, or something like that, email me at
cradleoflife212121@yahoo.com or maybe write your feelings about this tablature @ the
comments section of this site. Thanks to you all.
Comments