Slapshock - Lo Mejor Chords & Tabs

 

Lo Mejor Chords & Tabs

Slapshock Chords & Tabs

Version: 1 Type: Tab 0 ratings
1 star 2 stars 3 stars 4 stars 5 stars
comments

Lo Mejor Tab

                     "LO MEJOR" BY SLAPSHOCK
                 visit me at:freongang_81@yahoo.com
                      freongang_08@yahoo.com

          NOTE: FOR THOSE WHO EMAIL ME AND REQUESTING FOR TABS.....
                    "PUTANG INA SALAMAT SA TIWALA NYO?!?!"  
[ Tab from: http://www.guitartabs.cc/tabs/s/slapshock/lo_mejor_tab.html ]
Tuning: dropped D
     intro:                                         lo mejor...
 |-----------------------------------------------  ------------|
 |-----------------------------------------------  ------------|
 |-----------------------------------------------  ------------|
 |--2--------------------------------------------  --5--5---5--|
 |----1-2----3-2---1-2---3-2---1-2---3-2---1-2---  --5--5---5--|
 |---------1-----1-----1-----1-----1-----1-----1-  --3--3---3--|
     X3
 |---------------------  -------  --------11-------|
 |---------------------  -------  -----------------|
 |-------3-------------  -------  -----------------|
 |--4-4--3--3--4--5-5--  -3-3-3-  -3-3-3-----------|
 |--4-4--1--3--4--5-5--  -3-3-3-  -3-3-3-----------|
 |--2-2-----1--2--3-3--  -1-1-1-  -1-1-1-----------|
  
  ademo sa quino puerte tangco... (tang ina di ko alam lyrics nito)
 |--------------------------------------------|
 |--------------------------------------------|
 |--------------------------------------------|
 |-5-5---5-5---5-5-5---5-5--5---5-5-5---------|
 |-5-5---5-5---5-5-5---5-5--5---5-5-5---------|
 |-3-3---3-3---3-3-3---3-3--3---3-3-3---------|
         
               X2
 |------------------------------------------------------------------|
 |------------------------------------------------------------------|
 |------------------------------------------------------------------|
 |-7-7-7-7-7-7-7-7-8-8-8-8-8-8-8-8----------------------------------|
 |----------------------------------7-7-7-7-7-7-7-7-8-8-8-8-8-8-8-8-|
 |------------------------------------------------------------------|
 
   lo mejor........... noble
 |-----------------------------------|
 |-----------------------------------|
 |-------3---------------------------|
 |--4-4--3--3--4--5-5----------------|
 |--4-4--1--3--4--5-5----------------|
 |--2-2-----1--2--3-3----------------|

    X3   guitar on/off
 |--------------------------------|
 |------10---11-X--10-10-8--------|
 |--9-9----9----------------------|
 |--------------------------------|
 |--------------------------------|
 |--------------------------------|
       (repeat)
 |-------------------------------------|
 |-------------------------------------|
 |-------------------------------------|
 |---7-7-9-x-7-7-5-----4-6-4-5-4-5-3---|
 |---5-5-7-x-5-5-3-----2-4-2-3-2-3-1---|
 |-------------------------------------|

             <<<>>>
Comments