Slapshock - Get Down Chords & Tabs

 

Get Down Chords & Tabs

Slapshock Chords & Tabs

Version: 1 Type: Tab 0 ratings
1 star 2 stars 3 stars 4 stars 5 stars
comments

Get Down Tab

   
Song: Get Down
BAND: Slapshock
Tabbed by: stereo_pump*

Drop D Tuning (D A F C G D )


~~~~~~~~~~~~~~~~~~~~~~~~~~~~~~~WARNING~~~~~~~~~~~~~~~~~~~~~~~~~~~~~~~~~~~~

The owner of the copyright has authorized the use of this tab for
the purpose of private home viewing or study. any copying/reproduction 
of any of the material without the hand-written consent of MARKWELL
DUNGOG is an infringement of copyright and may result in severe 
athlete's foot, underarm odor or bad breath.

~~~~~~~~~~~~~~~~~~~~~~~~~~~~~~~~~~~~~~~~~~~~~~~~~~~~~~~~~~~~~~~~~~~~~~~~~~

LEGEND: 
  h = hammer on
  b = break
  p = pull off slowly
  \ = slide backward
  ? = uncertain of how many times note was repeated


Intro: (with distortion)

D-------------7---------7-7------------7h8------7------------
A-------------7---------7-7---repeat-------9h10---9----------
F-------------------------------3x---------------------------
C-----------------------------before-------------------------
G---7---7---5-----7---5--------------------------------------
D---------7---------7----------------------------------------


Stanza:
Fig. 1 (while guitar 2 scratches)

Guitar 1
                            Fill
D---7---7----------------'-(11)?p-'---------------
A---7---7--7-----repeat--'-(11)?p-'---------------
F-----7---7--------4x----'--------'---------------
C------------------------'--------'---------------
G------------------------'--------'---------------
D------------------------'--------'---------------



Fig 1.1

D--------------------------------------------------
A--------------------------------------------------
F--------------------------------------------------
C-------------------------------7-7-9-9------------
G---7-7-7-7-9-9-9-9-10-10-10-10--------------------
D--------------------------------------------------



Fig 1.2 (with a little distortion)

D--------------------------------------------------
A--------------------------------------------------
F--------------------------------------------------
C-------------------------------7-7-9-9------------
G---7-7-7-7-9-9-9-9-10-10-10-10--------------------
D--------------------------------------------------



Fig 1.3

D----------------------------------------------
A----------------------------------------------
F----------------------------------------------
C-----------------------7-9--------------------
G---7---7-9---9-10---10------------------------
D----------------------------------------------


CHORUS:
*GET BACK TO INTRO

START AGAIN FROM STANZA TO CHORUS



*note that strumming pattern is not given
"you can never really......"
[ Tab from: http://www.guitartabs.cc/tabs/s/slapshock/get_down_tab.html ]
D----------------------------------------------
A----------------------------------------------
F---4--------6---------11---------13-----------
C---4--------6---------11---------13-----------
G----------------------------------------------
D----------------------------------------------



Then guitar 1 does:

D----------------------------------------------
A----------------------------------------------
F----------------------------------------------
C----------------------------------------------
G---9-----------7------------------------------
D------12----------9---------------------------



Guitar 2 fills with:

D------(14)?------------------14\(6)?----------
A----------------------------------------------
F---11-----------------------------------------
C----------------------------------------------
G----------------------------------------------
D----------------------------------------------



Before he says "ride with me.."
Guitar 1

D----------------------------------------------
A----------------------------------------------
F----------------------------------------------
C----------------------------------------------
G---5---5---7-7-5-5-8-7------------------------
D----------------------------------------------



Guitar 2 fills with:

D----------------------------------------------
A----------------------------------------------
F----------------------------------------------
C----BONUS-------------------------------------
G----------------------------------------------
D----------------------------------------------



"Ride with me....."

D----------------------------------------------
A----------------------------------------------
F----------------------------------------------
C----------------------------------------------
G---5---5---5-5---5---5-5-5--------------------
D---5---5---5-5---5---5-5-5--------------------
     b   b   b b   b   b b b



THE "Screaming part"

D----------------------------------------------
A----------------------------------------------
F----------------------------------------------
C----------------------------------------------
G---5--5--7-5--5-5-8-7-------------------------
D---5--5--7-5--5-5-8-7-------------------------



OFF we go again to the chorus
the song ends with:

D----------------------------------------------
A----------------------------------------------
F----------------------------------------------
C---GET IT YOURSELF!!!!!!----------------------
G----------------------------------------------
D----------------------------------------------



DO e-mail me for comments or suggestions about this tab at:
                 stereo_pump@swirve.com
Comments