Slapshock - Get Away Chords & Tabs

 

Get Away Chords & Tabs

Slapshock Chords & Tabs

Version: 2 Type: Tab 0 ratings
1 star 2 stars 3 stars 4 stars 5 stars
comments

Get Away Tab

SONG: Getaway
BAND: Slapchuck
ALBUM: Headtrip
TRANSCRIBED BY: Slapchuck (slapchuck@yahoo.com)
If you want more metal tabs dont hesitate to visit my site www.geocities.com/slapchuck

Tuning: Dropped d tuning DADGBE
note: Slapshock's tuning is whole step down 
DGCFAD. I only use dropped in order to make the 
song easy to play.

Riff 1
E -------------------------------------------|
B -------------------------------------------|
G -------------------------------------------|
D -----7-7~~~~---8-8~~~~---7-7~~~~---8-8~~~~-|
A --0--5-5~~~~0--6-6~~~~0--5-5~~~~0--6-6~~~~-|
D --0---------0---------0---------0----------|

Riff 2             Riff 3
E -------------    ------------------|
B -------------    ------------------|
G -------------    ------------------|
D -------------(4x)-101010-9-9-9-7---|
A -----3H5-5-5-    --8-8-8-7-7-7-5---|
D --0----------    ------------------|                   

Riff 4                 Riff 5
E ---------------|     -------------------|
B ---------------|     -------------------|
G ---------------|     -12-12-12-12-12-12-|
D -----5H7--7--7-|(4x) -10-10-10-10-10-10-|
A --0--3H5--5--5-|     -------------------|
D --0------------|     -------------------|
[ Tab from: http://www.guitartabs.cc/tabs/s/slapshock/get_away_tab_ver_2.html ]
Riff 6
E --------------------------|
B --------------------------|
G --------------------------|
D --7~~~~-8~~~~-7~~~~-8~~~~-|(2x)
A --5~~~~-6~~~~-5~~~~-6~~~~-|
D --------------------------|

Riff 7                 Riff 8
E -----------------    ------------------------|
B -----------------    ------------------------|
G -----------------    ------------------------|
D -----------------(3x)------------------------|
A --0--------5h6-5-    --0H3-3-3--3H5-5--5-5-5-|
D --0--0--0--------    --0H3-3-3--3H5-5--5-5-5-|
p.m    -  -

Riff 9
E ------------------------------|
B ------------------------4-----|
G ---------------------3----(3)-|
D --1--0------------1-----------|
A -----------0------------------|
D --------0---------------------|

Riff 10
E -----------------------|
B -----------------------|
G -----------------------|
D -----------------------|(8x)
A --0--0-0-0-0-0--5H6-5--|
D --0--0-0-0-0-0---------|
p.m.   -   -   -

Riff 11
E --------------|
B --------------|
G --------------|
D --------------|(3x)
A --0--5--5H6-5-|
D --0-----------|

_end_

Song flow(figure it out yoself)
Intro: Riff 1
Verse 1: Riff 2, 3, {2, 3(with p.m.)}3x, 2, 3,
Verse 2: Riff 4, 3, 4, 3, 4, 3, 4, 5
Pre-Chorus: Riff 6
Chorus: Riff 7, 8, 7, 8
Verse 3: (do verse 1)
Verse 4: (do verse 2)
(rep. pre-chorus and chorus)
Interlude: Riff 9
Bridge: Riff 10
(rep. pre-chorus and chorus)
Coda: Riff 11, 8
Comments