Slapshock - Get Away Chords & Tabs

 

Get Away Chords & Tabs

Slapshock Chords & Tabs

Version: 1 Type: Bass Tab 0 ratings
1 star 2 stars 3 stars 4 stars 5 stars
comments

Get Away Bass Tab

BASS TAB:

SONG:Get Away
BAND: Slapshock
ALBUM: Headtrip

Tuning: Dropped d tuning DADG
note: Slapshock's tuning is whole step down 
DGCFAD. I only use dropped in order to make the 
song easy to play.

Intro:
G ---------- --------
D ---------- --------
A -----5--5- ----6--6 repeat this at about 4x
D --0------- -0------

Verse: Guitar 1st then bass and drums enters

G ---------------
D ---------------
A --3H-5--5--5--5
D --------------- Repeat 4x

G ---------------------
D ---------------------
A --8--8--8--7--7--7--5
D ---------------------
[ Tab from: http://www.guitartabs.cc/tabs/s/slapshock/get_away_btab.html ]
Pre-chorus (use intro pattern)
chorus:

G ------------
D ------------
A -----5H-6--5
D --0--------- 4x

G ------------------------
D ------------------------
A ------------------------
D --0H-3--3--3\-5--5--5--5

Interlude:

G ----------------------------------
D --------------------------12------
A --6--5-----6--5-------12---------
D --------0--------0\12--------12/-0

Bridge:

G -------------------------------
D -------------------------------
A ------------------------5H-6--5
D --0--0--0--0--0--0--0---------

Thats it!!!! easy as that...practice makes perfect.
Comments