Slapshock - Evil Clown Chords & Tabs

 

Evil Clown Chords & Tabs

Slapshock Chords & Tabs

Version: 3 Type: Tab 0 ratings
1 star 2 stars 3 stars 4 stars 5 stars
comments

Evil Clown Tab

   
EVIL CLOWN
As recorded by Slapshock
All Guitars Tuned Down One Whole Step
From Low to High (D G C F A D)

Intro
D|-----------------|
A|-----13-12-------|
F|-9-9-------10-9--|
C|-----------------|
G|-----------------|
D|-----------------|

Verse (Guitar 1)
D|-----------------|
A|-----13-12-------|
F|-9-9-------10-9--|
C|-----------------|
G|-----------------|
D|-----------------|

Verse (Guitar 2)
D|-12-x-12-x-12-x-12--12-x-12-x-12-x-12-xh12-13--|
A|-----------------------------------------------|
F|-----------------------------------------------|
C|-----------------------------------------------|
G|-----------------------------------------------|
D|-----------------------------------------------|

(1st and 3rd Verse Only)
D|h12-13-12--0-8-7-h0-1-0-|-[12]---------[15]--|
A|------------------------|---------[12]-------|
F|------------------------|--------------------|
C|------------------------|--------------------|
G|------------------------|--------------------|
D|------------------------|--------------------|

Pre-Chorus Sustain
PM---------------------------------------------------|
D|--------------------------------------------|------|
A|--------------------------------------------|------|
F|--------------------------------------------|------|
C|-2-2-2-2--2-2--2-2-2--2-2-2-2--2-2--2-2-2-8-|-2----|
G|-2-2-2-2--2-2--2-2-2--2-2-2-2--2-2--2-2-2-8-|-2----|
D|-0-0-0-0--0-0--0-0-0--0-0-0-0--0-0--0-0-0-6-|-0----|

Chorus
D|---------------------------------------------------------------------|
A|---------------------------------------------------------------------|
F|-----------7-9-------------------------------------------------------|
C|-8---2-----7-9-------------------------------------------------------|
G|-8---2-----5-7-------------------------------------------------------|
D|-6---0-------------6---0-5-0-6-0---5-----0-6--0-0-6-0-5-0-6-0-5-0-6--|
[ Tab from: http://www.guitartabs.cc/tabs/s/slapshock/evil_clown_tab_ver_3.html ]
D|---------------------------------------------------------------------|
A|--------5-----------5-----------5----8-------------------------------|
F|-------7b9---------7b9---------7b9-10b12-----------------------------|
C|---------------------------------------------------------------------|
G|-x-x-x-------x-x-x-------x-x-x---------------------------------------|
D|-0-0-0-------0-0-0-------0-0-0---------------------------------------|

Last Chorus Only
D|-----------------------------|
A|--------5----------5----8----|
F|-------7b9--------7b9-10b12--|
C|-----------------------------|
G|-x-x-x------x-x-x------------|
D|-0-0-0------0-0-0------------|

Bridge
D|--------------|------------|
A|--------------|------------|
F|--------------|-x-x-x------|
C|-7--9-9--7-9--|-x-x-x-7-9--|
G|-5-/7-7--5-7--|-x-x-x-5-7--|
D|--------------|------------|

Outro
D|-------------------------------------------|
A|-------------------------------------------|
F|-------------------------------------------|
C|-------------------------------------------|
G|-8---7---8---7---8--x-x-8---7---8---7---8--|
D|-6-0-5-0-6-0-5-0-6--0-0-6-0-5-0-6-0-5-0-6--|

D|-------------------------------------------|
A|-------------------------------------------|
F|-------------------------------------------|
C|-2-2-2---2---2---2-------------------------|
G|-2-2-2---2---2---2-------------------------|
D|-0-0-0---0---0---0-------------------------|

Song Structure:

Intro
Verse
Pre-Chorus
Verse
Pre-Chorus
Chorus
Sustain
Verse
Pre-Chorus
Chorus
Bridge
Outro

Legend :
h = hammer-on
| = bar
p = pull-off
|| = double bar
b = bend
||* = repeat start
r = bend release
*|| = repeat end
/ = slide up/down
*| = double bar (end)
[5] = nat. harmonic
! = repeat beat (?,8th)
 = art. harmonic
!! = repeat beat (16th)
~ = vibrato
% = repeat measure
tr = trill
: = bar (freetime)
T = tap
du = tremolo bar dip
TP = trem. picking
d = tremolo bar down
PM = palm muting
u = tremolo bar up
S = slap
ud = tremolo bar inverted dip
P = pop
= = hold (bend or tremolo bar)
e-mail: krozzbridd@hotmail.com
Comments