Slapshock - Enemy Chords & Tabs

 

Enemy Chords & Tabs

Slapshock Chords & Tabs

Version: 1 Type: Tab 0 ratings
1 star 2 stars 3 stars 4 stars 5 stars
comments

Enemy Tab

SONG:ENEMY
BAND:SLAPSHOCK
ALBUM:Project 11-41
TABBED BY:Mathew Alibangbang a.k.a RoCk3r_GuItArIsT
TUNNING:DADGBE


Intro
|-----------------------------------|
|-15~~-15~~-15~~-15~~-15~~-15~~-----|
|-----------------------------------|
|-----------------------------------|
|-----------------------------------|
|-----------------------------------|
2nd Intro
|--------------------------------------------------------------|
|--------------------------------------------------------------|
|--------------------------------------------------------------| 
|----------------------------5-5-5-5--3-3-3-3--5-5-5-5---------| 4x
|5-5--3h5--5-5--3h5--3h5/-8--3-3-3-3--1-1-1-1--3-3-3-3---------|
|x-x--x-x--x-x--x-x--x-x---------------------------------------|

Verse
|----------------------------------------------------------------|
|-----------15------------15-------------------------------------|
|14p-14p-14----14-14---14---------------------------------17-----|
|--------------------13---------10-10-10-10--8-8-8/-14-14--------|
|----------------------------------------------------------------|
|----------------------------------------------------------------|

1st time only
|------------------|----------------------|
|------------------|-15~~-15~~-15~~15~~---|
|--------7-7---7---|----------------------|
|-----7--7---7-----|----------------------|
|--5--5--5---------|----------------------|
|0-----------------|----------------------|


Chorus
|--------------------------------------------------------------|
|--------------------------------------------------------------|
|--------------------------------------------------------------| 
|----------------------------5-5-5-5--3-3-3-3--5-5-5-5---------| 4x
|5-5--3h5--5-5--3h5--3h5/-8--3-3-3-3--1-1-1-1--3-3-3-3---------|
|x-x--x-x--x-x--x-x--x-x---------------------------------------|


|-----------------------------------------------|
|-----------------------------------------------|
|-----------------------------------------------|
|-------------------5-5-5-5--3-3-3-3--5-5-5-5---| 2x
|5-8/0--5-8--3h5-8--3-3-3-3--1-1-1-1--3-3-3-3---|
|x-8/0--x-8-------------------------------------|


"In my mind,your in my soul"
|-----------------------------------------|
|-----------------------------------------|
|-----------------------------------------|
|-------------3-5----------3x33--5x55-----| 4x
|333-1-0--333-1-3--333-1-0-1x11--3x33-----|
|333-1-0--333------333-1-0----------------|


|-----------------|
|-----------------|
|7~---------------|
|7~-(Let it ring)-| 
|5~---------------|
|-----------------|
(Verse and then Chorus)

[ Tab from: http://www.guitartabs.cc/tabs/s/slapshock/enemy_tab.html ]
Bridge
                         2nd gtr.        1st gtr.    2nd gtr.
|----------------------|--------|------|----------|------------|
|----------------------|--------|------|----------|------------|
|----------------------|--------|------|----------|------------|
|xxx-12--15--12---7-8-7|7-7-7---|xxx-7-|12--15--12|7-----------|
|xxx-------------------|5-5-5---|xxx-5-|----------|5-----------|
|xxx-------------------|--------|xxx---|----------|------------|

 1st gtr.  2nd gtr    1st gtr.            2nd gtr.
|---------|-------|---------------------|---------|
|---------|-------|---------------------|---------|
|---------|-------|---------------------|---------|
|----7-8-7|7-7----|----12--15--12--7-8-7|7-7-7----|
|xxx------|5-5----|xxx------------------|5-5-5----|
|xxx------|-------|xxx------------------|---------|

|---------------------------------------------|
|---------------------------------------------|
|---------------------------------------------|
|---12--15--12---7-8-7----12--15--12---7-8-7--|
|000----------000------000----------000-------|
|000----------000------000----------000-------|


2nd gtr with 1st gtr.             2nd
|-----|----------|--------------|-----|---------------------|
|-----|----------|--------------|-----|---------------------|
|-----|----------|--------------|-----|---------------------|
|7-7-7|12-12-12--|-12-12--15--12|7-7-7|-7-7-7---7-7--8-7----| 2x
|5-5-5|----------|--------------|5-5-5|---------------------|
|-----|----------|--------------|-----|---------------------|

|-------------------------------|
|-------------------------------|
|-------------------------------|
|----7-7-10-7------7-7-8-7------| Play this many times
|000-5-5--8-5--000-7-7-8-7------|
|000-----------000-7-7-8-7------|

"In my mind,your in my soul"
|-----------------------------------------|
|-----------------------------------------|
|-----------------------------------------|
|-------------3-5----------3x33--5x55-----| 4x
|333-1-0--333-1-3--333-1-0-1x11--3x33-----|
|333-1-0--333------333-1-0----------------|

|-----------------|
|-----------------|
|7~---------------|
|7~-(Let it ring)-| 
|5~---------------|
|-----------------|

|-----------------------------------|
|-----------------------------------|
|-----------------------------------|
|7-7--5-7--7-7--5-7-----------------|
|5-5--3-5--5-5--3-5-----------------|
|-----------------------------------|


There you go jst email me if u hve any suggestion or prob ok
rock3r_guitarist@yahoo.com
See yah!
Note:Sa bridge just figure out kung gano ka bilis,my ibng part dyn na sabay yng
1st and 2nd gtr.
Text me"09193774244,Mathew
Comments