Slapshock - Burn My Skin Chords & Tabs

 

Burn My Skin Chords & Tabs

Slapshock Chords & Tabs

Version: 1 Type: Bass Tab

Burn My Skin Bass Tab

tabbed by: taracatac11dlsu
standard tuning

Intro/Verse/Chorus/Bridge/Outro..paulit ulit lang
[ Tab from: http://www.guitartabs.cc/tabs/s/slapshock/burn_my_skin_btab.html ]
G--------------|--------------|-----------------------|
D--------------|--------------|-----------------------|
A--------------|--------5-3---|-----3-5------3-5-3----|
E-3-3--3-6-3-1-|-3-3--3-----5-|-3-6------3-6-------5--|

G--------------|--------------|-----------------------|
D--------------|--------------|-----------------------|
A--------------|--------5-3---|-----3-5------3-5/8-5--|
E-3-3--3-6-3-1-|-3-3--3-----5-|-3-6------3-6----------|

sana tama...wala kasing gumawa e