Slapshock - Anino Mo Chords & Tabs

 

Anino Mo Chords & Tabs

Slapshock Chords & Tabs

Version: 5 Type: Tab 0 ratings
1 star 2 stars 3 stars 4 stars 5 stars
comments

Anino Mo Tab

hey dude wat's up!,it's me again Mathew a.k.a RoCk3r_GuItArIsT, eto yung 3rd
version ng anino mo ng slap shock dito sa UG,hope u like it!, well i do all my
best to get the guitar on this song so have fun,

TUNNING: (as usuall)
DADGBE

intro 
e|------------------------------------
b|------------------------------------
g|----8-7-5--8-7-3-5------------------
D|----x-x-x--x-x-x-x------------------
A|-3--6-5-3--6-5-1-3------------------
D|-0----------------------------------

interlude
e|-----------------------------------------
b|-----------------------------------------
g|-----------------------------------------
D|--------3-3-3--1-1-1-1-1-0-0-1-0---------
A|-3-3-3-----------------------------------
D|-----------------------------------------

verse part 1
e|------------------------------------
b|------------------------------------
g|------------------------------------
D|-------3-3-3--1-pause-0-1-0---------
A|-3-3-3------------------------------
D|------------------------------------
part 2
e|------------------------------------
b|------------------------------------
g|------------------------------------
D|------1-1--0------------1-1--0------
A|-3-3---------------3-3--------------
D|------------------------------------

pre chorus:
e|-5~------5~-----------------------------
b|-4~------6~-----------------------------
g|-5~------7~-----------------------------
D|-5~------7~-----------------------------
A|-3~------5~-----------------------------
D|----------------------------------------

chorus:
e|--------------------------------------------------------------------
b|--------------------------------------------------------------------
g|--------------------------------------------------------------------
D|-5-5-----------5-5------------5-5---------5-5-----------------------
A|-3-3----0-0----3-3-xxx0-0-xxx-3-3----0-0--3-3--2-2--5-5-------------
D|-0-0----0-0----0-0-xxx0-0-xxx-0-0----0-0--0-0--2-2--5-5-------------

(THEN REPEAT THE INTRO THEN VERSE UNTIL CHORUS)


bRIDGE
e|------------------------------------
b|------------------------------------
g|------------------------------------
D|------------------------------------
A|-3-3-3-1-1-1--0-0-------------------
D|------------------6-6-8--6----------
[ Tab from: http://www.guitartabs.cc/tabs/s/slapshock/anino_mo_tab_ver_5.html ]
e|-----------------------------------------------
b|-----------------------------------------------
g|-----------------------------------------------
D|-5--1-1--7-8--10--12---------------------------
A|-3--1-1--5-6--8---10---------------------------
D|-0--1-1--0-0--0---0----------------------------

"ANG BAWAT LINGON MO SA BUHAY"
e|------------------------------------
b|-5----------------------------------
g|-5----------------------------------
D|-3----------------------------------
A|------------------------------------     (I DON'T KNOW IF THIS RIGHT)
D|------------------------------------

"SUNDAN MO!!, ANG ANINO KO!"
e|------------------------------------------------------
b|------------------------------------------------------
g|------------------------------------------------------    4x OR 5 OR 6x
D|-5-5-5-5-5-5-5-5-5-5--6-6-6-6--8-8-8-8----------------
A|-3-3-3-3-3-3-3-3-3-3--6-6-6-6--8-8-8-8----------------
D|-0-0-0-0-0-0-0-0-0-0--6-6-6-6--8-8-8-8----------------

e|-----------------------------------------------
b|-----------------------------------------------
g|-----------------------------------------------
D|-5--1-1--7-8--10--12---------------------------
A|-3--1-1--5-6--8---10---------------------------
D|-0--1-1--0-0--0---0----------------------------

chorus:
e|--------------------------------------------------------------------
b|--------------------------------------------------------------------
g|--------------------------------------------------------------------
D|-5-5-----------5-5------------5-5---------5-5-----------------------
A|-3-3----0-0----3-3-xxx0-0-xxx-3-3----0-0--3-3--2-2--5-5-------------
D|-0-0----0-0----0-0-xxx0-0-xxx-0-0----0-0--0-0--2-2--5-5-------------


Coda:
e|--------------------------------------------------
b|--------------------------------------------------
g|-6-4-5/-------------------------------------------
D|-x-x-x/-------------------------------------------
A|-4-2-3/-------------------------------------------
D|--------------------------------------------------


hey mga pre, this is it, if u have any question just e-mail me @
rock3r_guitarist@yahoo.com or mat_cyclops15@yahoo.com
musta nga pla kay leandr and to all ng nakakilala sa kin, sori nga pla kng may
lumabas na isa png version na gawa ko nagkamali lng ako pero eto yung totoo
ok!,09193774244 or call me @ 9830838 hanapin nyo MATHEW ok

from:
Mathew Alibangbang a.k.a RoCk3r_GuItArIsT
thank you!!!!!!
ROCK RULEZ!!!!!!!!!!!!!!!!!

HAHAHAHAHAHAHA!!!!!!!!!
Comments